VGJam Tabs Super Mario Bros. 3
Super Mario Bros. 3
"Aboveground BGM" - Guitar tab
Platform(s):Nintendo Entertainment System
Composed by:Koji Kondo
Tabbed by:Øyvind Sundstrøm
Last modified:2000-12-25
Print it:Original file (.TXT)
Game: Super Mario Bros 3.
Song: World 1-1 theme.
Tabbed by: yvind Sundstrm (oyvind_sundstrom@hotmail.com)


This theme is used some times during the game.


Introduction (only played once!)
|----------------------------------|
|----------------------------------|
|---------12--10-------12-12-------|
|------9---------7-8-9-------------|
|---10-----------------------10----|
|----------------------------------|


main theme
                                  After this line the bass plays:
                                  (or you can play it youself!)

|-------------------------------| G|---------------------------|
|-------------------------------| D|--------9-9--12------------|
|---9-7-9-7-9---5--9-7-9-9-5-7--| A|---------------------------|
|-------------5-----------------| E|---------------------------|
|-------------------------------|
|-------------------------------|


|---------------------------------| |-------------------------|
|---------------------------------| |-----------------10------|
|--9-7-9-7-9---5-9-7-9-------5----| |-------------10----------|
|------------5----------5-7-------| |--7-7--10-10-------------|
|---------------------------------| |-------------------------|
|---------------------------------| |-------------------------|


|----------------------------------------------------|
|----------------8---------------6--------------5----|
|--------------9---------------7--------------5------|
|---5-5--10-10--------3-3--7-7-------2-2--5-5--------|
|----------------------------------------------------|
|----------------------------------------------------|


|--------------------------------------------------------------------|
|------------------10------------------10----------------------------|
|--------------10------------------10-------------------------12-12--|
|---7-7--10-10----------7-7--10-10-------9-9-10-10-11-11-12-12-------|
|--------------------------------------------------------------------|
|--------------------------------------------------------------------|


Ok people that`s it. It`s not very hard to play, but listen to the
music for rythm and feeling.

Please mail me with comments and requests (if any).

VGJam Tabs Super Mario Bros. 3 - "Aboveground BGM"
Tabs database last modified Tuesday, 01-Nov-2016 19:14:53 UTC.
Copyright © 1999 - 2016 VideoGameJam.com. All rights reserved.