VGJam Tabs Advance Wars
Advance Wars
"Andy's theme" - Guitar tab
Platform(s):Game Boy Advance
Tabbed by:Deezer
Last modified:2001-10-26
Print it:Original file (.TXT)
#----------------------------------PLEASE NOTE---------------------------------#
#This file is the author's own work and represents their interpretation of the #
#song. You may only use this file for private study, scholarship, or research. #
#------------------------------------------------------------------------------#

Advance Wars (Game Boy Advance)
"Andy's theme"

Originally composed by: ?
------------------------------------------------------------------------------
Tabbed by: Deezer (deezer@kontek.net)
For http://www.kontek.net/vgjam/
------------------------------------------------------------------------------

Standard Tuning - (low to high) EADGBe


First guitar:
(Some synth thing(?) tabbed for guitar)

-------------------16--14-----------------------------------------
------17-------------------17--15--15--14-------------------------
--16---------------------------------------14--p13h14p13h14-------
--------------------------------------------------------------14--
------------------------------------------------------------------
------------------------------------------------------------------

-------------------16--14-----------------16b17--
------17-------------------17--15--15--14--------
--16---------------------------------------------
-------------------------------------------------
-------------------------------------------------
-------------------------------------------------

Second guitar (w/distortion):

--/12---12-12-12-/17-17-----17--17vv\--
--/12---12-12-12---------17-----17vv\--
---------------------------------------
---------------------------------------
---------------------------------------
---------------------------------------

First guitar:

--17--17------17----17--------
----------17-----------17-14--
------------------------------
------------------------------
------------------------------
------------------------------

Second guitar (w/distortion):

--/12---12-12-12-/17-17-----17--17vv\--
--/12---12-12-12---------17-----17vv\--
---------------------------------------
---------------------------------------
---------------------------------------
---------------------------------------

First guitar:

--17--17------------------------
----------17--------17----------
--------------16----------------
--------------------------------
--------------------------------
--------------------------------

Repeat from beginning, then guitar one continues:

----------17-----17-------22--22p21p19-17-----17-----17------
----/17-------20-----20-------------------17-----17------17--
--16---------------------------------------------------------
-------------------------------------------------------------
-------------------------------------------------------------
-------------------------------------------------------------

-----------18b19----17-------------------------------------
--19b20-----------------20-17------20-17-------------------
-------------------------------19---------19-p18h19p18\16--
-----------------------------------------------------------
-----------------------------------------------------------
-----------------------------------------------------------

----------17-----17-------22--22p21p19-17-----17-----17------
----/17-------20-----20-------------------17-----17------17--
--16---------------------------------------------------------
-------------------------------------------------------------
-------------------------------------------------------------
-------------------------------------------------------------

-----------18b19----17--------------------------------
--19b20-----------------20-17------20-17--------------
-------------------------------19---------19----------
------------------------------------------------------
------------------------------------------------------
------------------------------------------------------

Back to beginning.


Last modified: 10/26/2001

VGJam Tabs Advance Wars - "Andy's theme"
Tabs database last modified Tuesday, 01-Nov-2016 19:14:53 UTC.
Copyright © 1999 - 2016 VideoGameJam.com. All rights reserved.