VGJam Tabs Super Mario Bros. 3
Super Mario Bros. 3
"World 1 map screen" - Guitar tab
Platform(s):Nintendo Entertainment System
Composed by:Koji Kondo
Tabbed by:Igor Lazebnik
Last modified:2000-05-13
Print it:Original file (.TXT)
Hear it:MIDI file
Mario 3 (1st map, level choosing music)
Tabbed by Igor Lazebnik


Legend
------
/  = slide up/down



This is a really nice melody!!!


E|-----------------------------------------------------------------
B|--8--8---10-10---12-12-10-9/10--8--8---10-10-12---13-13----15-15-
G|--9--9----9--9----9--9--9-------9--9----9--9--9---14-14----14-14-
D|-10-10---10-10---10-10-10------10-10---10-10-10---15-15----15-15-
A|-----------------------------------------------------------------
E|--8----8-------8--------8-------8----8--------8---13----13-------



E|--------------------13-13--13-13-
B|----17-17-15-14/15--13-13--13-13-
G|----14-14-14--------14-14--14-14-
D|----15-15-15---------------------
A|---------------------------------
E|-13-------13--------13-13--13-13-



Enjoy!
Any comments, send to Igor_hill@mailcity.com

VGJam Tabs Super Mario Bros. 3 - "World 1 map screen"
Tabs database last modified Tuesday, 01-Nov-2016 19:14:53 UTC.
Copyright © 1999 - 2016 VideoGameJam.com. All rights reserved.