VGJam Tabs Super Mario Bros. 3
Super Mario Bros. 3
"World 3 map screen" - Guitar tab
Platform(s):Nintendo Entertainment System
Composed by:Koji Kondo
Tabbed by:Deezer
Last modified:2002-09-10
Print it:Original file (.TXT)
Hear it:MIDI file
#----------------------------------PLEASE NOTE---------------------------------#
#This file is the author's own work and represents their interpretation of the #
#song. You may only use this file for private study, scholarship, or research. #
#------------------------------------------------------------------------------#

Super Mario Bros. 3 (NES)
"World 3 Map Screen"

Originally composed by: Koji Kondo
------------------------------------------------------------------------------
Tabbed by: Deezer (deezer@kontek.net)
For http://www.kontek.net/vgjam/
------------------------------------------------------------------------------

Standard Tuning - (low to high) EADGBe


G1|-----------------------------------------
U |-12--------10------------------10--------
I |---------------------13------------------
T |-----------------------------------------
A |-----------------------------------------
R |-----------------------------------------
  |
G2|------12------12------------12-----12----
U |------12------12------------12-----12----
I |-----------------------------------------
T |-----------------------------------------
A |-----------------------------------------
R |-----------------------------------------


G1|-----------------------------------------
U |-13--------12--------11--------12--------
I |-----------------------------------------
T |-----------------------------------------
A |-----------------------------------------
R |-----------------------------------------
  |
G2|------13------13------------13-----13----
U |------13------13------------13-----13----
I |-----------------------------------------
T |-----------------------------------------
A |-----------------------------------------
R |-----------------------------------------


G1|-10--------------------------------------
U |-----------13--------12--------10--------
I |-----------------------------------------
T |-----------------------------------------
A |-----------------------------------------
R |-----------------------------------------
  |
G2|------15------15------------15-----15----
U |------15------15------------13-----13----
I |-----------------------------------------
T |-----------------------------------------
A |-----------------------------------------
R |-----------------------------------------


G1|-----------------------------------------
U |-13--------12--------10------------------
I |-------------------------------13--------
T |-----------------------------------------
A |-----------------------------------------
R |-----------------------------------------
  |
G2|------13------13-----13---13-------------
U |------13------13-------------------------
I |-----------------------------------------
T |-----------------------------------------
A |-----------------------------------------
R |-----------------------------------------

Repeat forever. 


Last revised: 9/10/2002

VGJam Tabs Super Mario Bros. 3 - "World 3 map screen"
Tabs database last modified Tuesday, 01-Nov-2016 19:14:53 UTC.
Copyright © 1999 - 2016 VideoGameJam.com. All rights reserved.