VGJam Tabs Teenage Mutant Ninja Turtles
Teenage Mutant Ninja Turtles
"Boss battle" - Guitar tab
Platform(s):Nintendo Entertainment System
Tabbed by:Øyvind Sundstrøm
Last modified:2002-02-05
Print it:Original file (.TXT)
Hear it:MIDI file
Game:Teenage mutant ninja turtles
Developer:Palcom/Konami
Song:First boss music
Tabbed by:yvind Sundstrm (o_sundstrom@yahoo.com)

This the music from when you have to rescue april on stage one.

Gtr I (E A D G B E)

 Q=220
 4/4
  
  Q  E S S S S S S S S S S   S S S S S S S S S S S S S S E
|--------------------------|-------------------------------|
|------3---2---1---0-------|-------------------------------|
|----------------------3---|-2---1---0-------------------2-|
|--------------------------|-------------4---3---2---1-----|
|--------------------------|-------------------------------|
|--------------------------|-------------------------------|


  Q=140
  E E E E E S S +S  S E   S S S  S  S  S S S S S S S S S  S S
|-----1---3---4-(4)---5-|-8-8-8-----------------------------8--|
|-3-3---3---------------|-------10-10-10-9-9-9-8-8-8-6-8-10----|
|-----------------------|--------------------------------------|
|-----------------------|--------------------------------------|
|-----------------------|--------------------------------------|
|-----------------------|--------------------------------------|


  S S S S S S S S S S S S S S S S   S S S S S S S S  S  S S  S  S  S  S  
S
|---------------------------------|----------------------------------------|
|-6-5-3---3-5-6-8-6-5-3---3-5-6-8-|-6-5-3---3-5-6-8-10----8-10-12-13-15-17-|
|-------2---------------2---------|-------2------------10------------------|
|---------------------------------|----------------------------------------|
|---------------------------------|----------------------------------------|
|---------------------------------|----------------------------------------|


   S  S  S  S  S  S  S  S  S  S  S  S  S  S  S  S
|-------------------------------------------------|
|-18-17-15----15-17-18-20-18-17-15----15-17-18-20-|
|----------14----------------------14-------------|
|-------------------------------------------------|
|-------------------------------------------------|
|-------------------------------------------------|


   S  S  S  S  S  S  S  S  S  S  S  S  S  S  S  S
|-------------------------------------------------|
|-18-17-15----15-17-18-20-18-17-15----15-17-18-20-|
|----------14----------------------14-------------|
|-------------------------------------------------|
|-------------------------------------------------|
|-------------------------------------------------|


   E.  S  +S   S  S  S  S  S  S  S  S  S  S  S
|----------------------------------------------|
|-22--22-(22)-22-21-20-19-18-17-16-15-14-13-12-|
|----------------------------------------------|
|----------------------------------------------|
|----------------------------------------------|
|----------------------------------------------|


   S  S S S S S S S S S S S S S S S
|------------------------------------|
|-10-10---9-9---8-8---7-7---6-6-5-5--|
|------------------------------------|
|------------------------------------|
|------------------------------------|
|------------------------------------|


  E E E E E S S +S  S E   S S S  S  S  S S S S S S S S S  S S
|-----1---3---4-(4)---5-|-8-8-8-----------------------------8--|
|-3-3---3---------------|-------10-10-10-9-9-9-8-8-8-6-8-10----|
|-----------------------|--------------------------------------|
|-----------------------|--------------------------------------|
|-----------------------|--------------------------------------|
|-----------------------|--------------------------------------|


  S S S S S S S S S S S S S S S S   S S S S S S S S  S  S S  S  S  S  S  
S
|---------------------------------|----------------------------------------|
|-6-5-3---3-5-6-8-6-5-3---3-5-6-8-|-6-5-3---3-5-6-8-10----8-10-12-13-15-17-|
|-------2---------------2---------|-------2------------10------------------|
|---------------------------------|----------------------------------------|
|---------------------------------|----------------------------------------|
|---------------------------------|----------------------------------------|


   S  S  S  S  S  S  S  S  S  S  S  S  S  S  S  S
|-------------------------------------------------|
|-18-17-15----15-17-18-20-18-17-15----15-17-18-20-|
|----------14----------------------14-------------|
|-------------------------------------------------|
|-------------------------------------------------|
|-------------------------------------------------|


   S  S  S  S  S  S  S  S  S  S  S  S  S  S  S  S
|-------------------------------------------------|
|-18-17-15----15-17-18-20-18-17-15----15-17-18-20-|
|----------14----------------------14-------------|
|-------------------------------------------------|
|-------------------------------------------------|
|-------------------------------------------------|


   E.  S  +S   S  S  S  S  S  S  S  S  S  S  S
|----------------------------------------------|
|-22--22-(22)-22-21-20-19-18-17-16-15-14-13-12-|
|----------------------------------------------|
|----------------------------------------------|
|----------------------------------------------|
|----------------------------------------------|


   S  S S S S S S S S S S S S S S S
|------------------------------------|
|-10-10---9-9---8-8---7-7---6-6-5-5--|
|------------------------------------|
|------------------------------------|
|------------------------------------|
|------------------------------------|

Explosion!
             Q=129
  W           S  S  S S  S S  S S S S  S S S S  S S
|----------|-10---------10--------8------8--------8-|
|----------|----10-----------10-----8--------8------|
|----------|----------------------------------------|
|----------|-------12-----------------10-------10---|
|----------|----------------------------------------|
|----------|----------------------------------------|


   S  S  S S  S S  S S S S  S S S S  S  S
|-10---------10--------8------8--------12-|
|----10-----------10-----8--------8-------|
|-----------------------------------------|
|-------12-----------------10-------10----|
|-----------------------------------------|
|-----------------------------------------|


   S  S  S S  S S  S S S S  S S S S  S S
|-10---------10--------8------8--------9-|
|----10-----------10-----8--------8------|
|----------------------------------------|
|-------12-----------------10-------10---|
|----------------------------------------|
|----------------------------------------|


   S  S  S  S E  E  +H
|-10-10-10-10-8-10-(10)----*|
|--------------------------*|
|--------------------------*|
|--------------------------*|
|--------------------------*|
|--------------------------*|



Duration Legend
---------------
W - whole; H - half; Q - quarter; E - 8th; S - 16th; T - 32nd; X - 64th; 
a - acciaccatura
+ - note tied to previous; . - note dotted; .. - note double dotted
Uncapitalized letters represent notes that are staccato (1/2 duration)
Irregular groupings are notated above the duration line
Duration letters will always appear directly above the note/fret number 
it represents the
duration for.  Duration letters with no fret number below them represent 
rests.  Multi-
bar rests are notated in the form Wxn, where n is the number of bars to 
rest for.  Low
melody durations appear below the staff

Tablature Legend
----------------
 h   - hammer-on
 p   - pull-off
 b   - bend
 pb  - pre-bend
 r   - bend release (if no number after the r, then release immediately)
 /\  - slide into or out of (from/to "nowhere")
 s   - legato slide
 S   - shift slide
 - natural harmonic
[n]  - artificial harmonic
n(n) - tapped harmonic
 ~   - vibrato
 tr  - trill
 T   - tap
 TP  - trem. picking
 PM  - palm muting
\n/  - tremolo bar dip; n = amount to dip
 \n  - tremolo bar down
 n/  - tremolo bar up
/n\  - tremolo bar inverted dip
 =   - hold bend; also acts as connecting device for hammers/pulls
 <> - volume swell (louder/softer)
 x   - on rhythm slash represents muted slash
 o   - on rhythm slash represents single note slash

Misc Legend
-----------
 |  - bar
||  - double bar
||o - repeat start
o|| - repeat end
*|  - double bar (ending)
 :  - bar (freetime)
 $  - Segno
 & - Coda
Tempo markers -  = BPM(8/16=s8/s16), where s8 = swing 8ths, 
s16 = swing 16ths

VGJam Tabs Teenage Mutant Ninja Turtles - "Boss battle"
Tabs database last modified Tuesday, 01-Nov-2016 19:14:53 UTC.
Copyright © 1999 - 2016 VideoGameJam.com. All rights reserved.