VGJam Tabs Teenage Mutant Ninja Turtles
Teenage Mutant Ninja Turtles
"Title screen" - Guitar tab
Platform(s):Nintendo Entertainment System
Tabbed by:Livewire626
Last modified:2000-12-14
Print it:Original file (.TXT)
Title:(NES)Teenage mutant ninja turtles title screen
Author:Livewire626

Intro:
e|--------------------------------------------------------------------
B|--------------------------------------------------------------------
G|------------------------3-3-2-2-------------------------3-3-2-------
D|----------3-----5555555-3-3-2-2-----------3-----5555555-3-3-2-------
A|--5555555-3-----5555555-----------5555555-3-----5555555-------------
E|--5555555-------------------------5555555---------------------------
Then play:                                    
|---------------------------------------------------------------------
|---------------------------------------------------------------------
|-3-5-8---9-10-12-13--5---5-6-8-9--3--5-4-----------------------------
|-3-5-8---------------5------------3--5-4-----------------------------
|---------------------------------------------------------------------
|---------------------------------------------------------------------
Solo:
|17-15-12-17-15-12-17-15-12-17-15-12-12-12-16-16~~~-------------------
|---------------------------------------------------------------------
|---------------------------------------------------------------------
|---------------------------------------------------------------------
|---------------------------------------------------------------------
|---------------------------------------------------------------------
Then just play the whole thing over.

VGJam Tabs Teenage Mutant Ninja Turtles - "Title screen"
Tabs database last modified Tuesday, 01-Nov-2016 19:14:53 UTC.
Copyright © 1999 - 2016 VideoGameJam.com. All rights reserved.