VGJam Tabs Wizards & Warriors
Wizards & Warriors
"Theme" - Guitar tab
Platform(s):Nintendo Entertainment System
Tabbed by:Issaqua
Last modified:2001-10-17
Print it:Original file (.TXT)
Hear it:MIDI file
 WIZARDS & WARRIORS

  M.M. = 120
|-10----12----13----15----------12----15----13----|-12----13----15----12----------10----13----12-----|
|----10----10----10----10-11----------------------|----13----13----13----------------13----13----13--|
|----------------------------12----12----12----12-|----------------------12-14-----------------------|
|-------------------------------------------------|----------------------------15--------------------|
|-------------------------------------------------|--------------------------------------------------|
|-------------------------------------------------|--------------------------------------------------|


|-10----12----13----10----10----12----13----12----|-12----------12----------17----------17----17-----|
|----11----11----11----11-------------------------|-------14----------14----------14-------14----14--|
|----------------------------12----12----12----12-|----14----14----14----14----14----14--------------|
|-------------------------------------------------|--------------------------------------------------|
|-------------------------------------------------|--------------------------------------------------|
|-------------------------------------------------|--------------------------------------------------|


|-10----12----13----15----------12----15----13----|-12----13----15----12----------10----13----12-----|
|----10----10----10----10-11----------------------|----13----13----13----------------13----13----13--|
|----------------------------12----12----12----12-|----------------------12-14-----------------------|
|-------------------------------------------------|----------------------------15--------------------|
|-------------------------------------------------|--------------------------------------------------|
|-------------------------------------------------|--------------------------------------------------|
|
|-------------------------------------------------|--------------------------------------------------|
|-3-----------------5--6--8-----------------10-11-|-13----------------11-10-------8-----10-----------|
|-------------------------------------------------|-------------------------10----------------10-----|
|-------------------------------------------------|--------------------------------------------------|
|-------------------------------------------------|--------------------------------------------------|
|-------------------------------------------------|--------------------------------------------------|


|-10----12----13----10----10----12----13----12----|-12----------12----------17----------17----17-----|
|----11----11----11----11-------------------------|-------14----------14----------14-------14----14--|
|----------------------------12----12----12----12-|----14----14----14----14----14----14--------------|
|-------------------------------------------------|--------------------------------------------------|
|-------------------------------------------------|--------------------------------------------------|
|-------------------------------------------------|--------------------------------------------------|
|
|-------------------------------------------------|--------------------------------------------------|
|-11----------11-13-11-10-8-----------8--10-11----|-10----------10----------10----10----10-8--6--5---|
|----------------------------------------------12-|--------------------------------------------------|
|-------------------------------------------------|--------------------------------------------------|
|-------------------------------------------------|--------------------------------------------------|
|-------------------------------------------------|--------------------------------------------------|


|-13----------13----13-15-17----------15--13----|-15----------15----12-15-15----------13--12-----|
|-------15-------15----------11----11--------11-|-------13-------13----------10----10--------10--|
|----14----14----14-------------12--------------|----12----12----------12-------10---------------|
|-----------------------------------------------|------------------------------------------------|
|-----------------------------------------------|------------------------------------------------|
|-----------------------------------------------|------------------------------------------------|
|
|-------------------------3-----------3---5--6--|-8-----------8--6--5--3--1-----3-----5----------|
|-3-----------3-----3--5------------------------|-----------------------------------------6------|
|-----------------------------------------------|------------------------------------------------|
|-----------------------------------------------|------------------------------------------------|
|-----------------------------------------------|------------------------------------------------|
|-----------------------------------------------|------------------------------------------------|


|-13-------------12-13----13-------------12-13----|-12----9----12----9----17----------17----17-----|
|-------15----15-------15-------15----15-------15-|----10---10----10---10-------14-------14----14--|
|----15----15----------------12----12-------------|--------------------------14----14--------------|
|-------------------------------------------------|------------------------------------------------|
|-------------------------------------------------|------------------------------------------------|
|-------------------------------------------------|------------------------------------------------|
|
|-6-----------6--8--6--5--3-----------3--5--6-----|------------------------------------------------|
|----------------------------------------------8--|-10---------10---------10----------10-8--6--5---|
|-------------------------------------------------|------------------------------------------------|
|-------------------------------------------------|------------------------------------------------|
|-------------------------------------------------|------------------------------------------------|
|-------------------------------------------------|------------------------------------------------|


|-13----------13----13-15-17----------15-13----|-15----------15----12-15-15----------13--12-----|
|-------15-------15----------11----11-------11-|-------13-------13----------10----10--------10--|
|----14----14----14-------------12-------------|----12----12----------12-------10---------------|
|----------------------------------------------|------------------------------------------------|
|----------------------------------------------|------------------------------------------------|
|----------------------------------------------|------------------------------------------------|
|
|----------------------------------------------|------------------------------------------------|
|-3-----------3-----5--6--8-----------8--10-11-|-13----------13-11-10-8--6-----8-----10---------|
|----------------------------------------------|-----------------------------------------10-----|
|----------------------------------------------|------------------------------------------------|
|----------------------------------------------|------------------------------------------------|
|----------------------------------------------|------------------------------------------------|


|-13-------------12-13----13-------------12-13----|-12----9----12----9----17----------17----17-----|
|-------15----15-------15-------15----15-------15-|----10---10----10---10-------14-------14----14--|
|----15----15----------------12----12-------------|--------------------------14----14--------------|
|-------------------------------------------------|------------------------------------------------|
|-------------------------------------------------|------------------------------------------------|
|-------------------------------------------------|------------------------------------------------|
|
|-------------------------------------------------|------------------------------------------------|
|-11----------11-13-11-10-8-----------8--10-11----|-10---------10---------10----10----10-8--6--5---|
|----------------------------------------------12-|------------------------------------------------|
|-------------------------------------------------|------------------------------------------------|
|-------------------------------------------------|------------------------------------------------|
|-------------------------------------------------|------------------------------------------------|


|-------------------------------------------*|
|-------17-18-------17-18-------17-18-------*|
|-19----------19----------19----------19----*|
|----19----------19----------19-------------*|
|-------------------------------------------*|
|-------------------------------------------*|
|
|-------------------------------------------*|
|-3-----------------------------------------*|
|-------------------------------------------*|
|-------------------------------------------*|
|-------------------------------------------*|
|-------------------------------------------*|

VGJam Tabs Wizards & Warriors - "Theme"
Tabs database last modified Tuesday, 01-Nov-2016 19:14:53 UTC.
Copyright © 1999 - 2016 VideoGameJam.com. All rights reserved.