VGJam Tabs Zelda II: The Adventure of Link
Zelda II: The Adventure of Link
"Title screen" - Guitar tab
Platform(s):Nintendo Entertainment System
Composed by:Koji Kondo
Tabbed by:Daniel Lee Hill
Last modified:2000-12-23
Print it:Original file (.TXT)
The Legend of Zelda II
Title Screen

Daniel Lee Hill
ICQ: 7831222


E -8-7-----8-7-----|
B -----8-------8---|
G -------7-------7-|
D -----------------|
A -----------------|
E -----------------| x4

E -------------------3-1-1-------------|
B -3-0-3-1---------3-------4---4-3-----|
G ---------3-0-3-2-----------3-----2---|
D -----------------------------------4-|
A -------------------------------------|
E -------------------------------------| x2

E -15-15-15-15-16-16-16-16-17-17-17-17-18-20-|
B -------------------------------------------|
G -------------------------------------------|
D -------------------------------------------|
A -------------------------------------------|
E -------------------------------------------|

E -----------------------------|
B -1-0-------------------------|
G -----0-----------------------|
D -------0-----0-3-2-0---0-----|
A ---------2-3---------3---3-2-|
E -----------------------------| x2

E ---------------------------------|
B -------------3-------------1-----|
G -----0-3-2-------2-----0-3---3-2-|
D -1-3-------4---4---1-3-----------|
A ---------------------------------|
E ---------------------------------|

E ---------------------------|
B -------------3-----1---1-3-|
G -----0-3-2-------2---3-----|
D -1-3-------4---4-----------|
A ---------------------------|
E ---------------------------|

VGJam Tabs Zelda II: The Adventure of Link - "Title screen"
Tabs database last modified Tuesday, 01-Nov-2016 19:14:53 UTC.
Copyright © 1999 - 2016 VideoGameJam.com. All rights reserved.