VGJam Tabs Alex the Kidd
Alex the Kidd
"Main theme" - Guitar tab
Platform(s):Sega Genesis
Tabbed by:Uncleben777
Last modified:2001-11-27
Print it:Original file (.TXT)
Hear it:MIDI file
#----------------------------------PLEASE NOTE---------------------------------#
#This file is the author's own work and represents their interpretation of the #
#song. You may only use this file for private study, scholarship, or research. #
#------------------------------------------------------------------------------#


Alex the Kidd - Main theme - Sega Genesis.
By Uncleben777@hotmail.com
For http://www.kontek.net/vgjam/

Its not 100% correct, the tone is a bit off (Sounds a bit too tinny I think).
Try and octave lower or something, E-mail me if you think you can do better.
Enjoy.

Standard Tuning - EADGBe

Intro (Play Twice)
e|--------------------------------------------------
B|--------------------------------------------------
G|--------------------------------------------------
D|--------------------------------------------------
A|-5-5-0-0-5-5-0-0-5-5-0-0-5---5--------------------
E|--------------------------------------------------

Main Riff
e|--------------------------------------------------
B|--------------------------------------------------
G|--------------------------------------------------
D|-0-0--5h7---2-2--7h9---5-5--9h11-9-7-5-4----------
A|--------------------------------------------------
E|--------------------------------------------------



e|--------------------------------------------------
B|--------------------------------------------------
G|--------------------------------7-----------------
D|-0-0--5h7---2-2--7h9---7-7-11-7-------------------
A|--------------------------------------------------
E|--------------------------------------------------

(Peice after main riff)
e|--------------------------------------------------
B|--------------------------------------------------
G|--------------------------------------------------
D|-9-9-9h11-11-9-7(let ring)--5-5-5h7-7-5-4(let Ring)
A|--------------------------------------------------
E|--------------------------------------------------

e|--------------------------------------------------
B|--------------------------------------------------
G|-----------------7------------7---6---------------
D|-9-9-9h11-11-9-7---7--9-7-5-7--7---7--------------
A|--------------------------------------------------
E|--------------------------------------------------

e|--------------------------------------------------
B|--------------------------------------------------
G|--------------------------------7-----------------
D|-0-0--5h7---2-2--7h9---7-7-11-7-------------------
A|--------------------------------------------------
E|--------------------------------------------------

Thats it.
VGJam Tabs Alex the Kidd - "Main theme"
Tabs database last modified Tuesday, 01-Nov-2016 19:14:53 UTC.
Copyright © 1999 - 2016 VideoGameJam.com. All rights reserved.