VGJam Tabs Altered Beast
Altered Beast
"Level 1" - Guitar tab
Platform(s):Sega Genesis
Tabbed by:Deezer
Last modified:1999-11-13
Print it:Original file (.TXT)
Hear it:MIDI file
#----------------------------------PLEASE NOTE---------------------------------#
#This file is the author's own work and represents their interpretation of the #
#song. You may only use this file for private study, scholarship, or research. #
#------------------------------------------------------------------------------#

Altered Beast (Sega Genesis)
"Level 1"

Originally composed by: ?
------------------------------------------------------------------------------
Tabbed by: Deezer (deezer@usa.net)
For http://www.kontek.net/vgjam/
------------------------------------------------------------------------------


Symbols used:
 x2 = Play this section 2 times.


Tuning: Dropped D - (low to high) DADGBe


    G5          F5 G5    F5            F5 G5
e|-------------------------------------------
B|--------------------8--6-------------------
G|--------7-----5--7-------------------5--7--
D|--5---5-------------5--3-------------------
A|--5---5-5-----3--5--5--3-------------3--5--
D|--5---5-5-----3--5-------------------3--5--


 *  N.C.
e|--------------------------------------------------------
B|--------------------------------8--6--------------------
G|---------------7----------5--7--------------8-----5--7--
D|------------5-------------------------------------------
A|-------5------------------------------------------------
D|--5-----------------------------------------------------


e|--6---------5--6--10--8------5-----------6---------5-----------
B|------------------------------------6-----------------8--6--8--
G|---------------------------------------------------------------
D|---------------------------------------------------------------
A|---------------------------------------------------------------
D|---------------------------------------------------------------


Percussion comes in...


e|-----------------------------------------------------------------------
B|-----------------------------------------------------------------------
G|--7----8------7--5--------7--------------5----7------5--------------5--
D|--------------------8--8-----------------------------------8--7--7-----
A|-----------------------------------------------------------------------
D|-----------------------------------------------------------------------


e|-----------------------------------------------------------------
B|-----------------------------------------------------------------
G|--7-------------------5------------------------------------------
D|--------------5--7----------------3--5----3-------------------0--
A|-------8-------------------6-------------------0------1--3-------
D|-----------------------------------------------------------------


e|--------------------------------------------------3------6------5--
B|-------------------------------------------4-----------------------
G|---------0------3----2------0--------------------------------------
D|--1----------------------------3--1--3--0--------------------------
A|-------------------------------------------------------------------
D|-------------------------------------------------------------------


e|-------------------------------------------------------------------
B|----------------------------------------------------------------3--
G|---------0------3----2------0---------------------0------3---------
D|--1----------------------------3--1--3--0--1-----------------------
A|-------------------------------------------------------------------
D|-------------------------------------------------------------------


e|------------------------------------------------|     |
B|------------------------------------------------|     |
G|--7--5--7-------------5--5-----5----------------|     |
D|-----------5----7--8--------8----------5--7--8--|     |
A|----------------------------------8-------------|     |
D|------------------------------------------------| x2  |
                                                        | x2
e|------------------------------------------------------|
B|-----------8----6-------------------------------------|
G|--7--5--7----------8--7--5-----5--7-------------------|
D|----------------------------8----------7--5-----5-----|
A|---------------------------------------------8--------|
D|------------------------------------------------------|


e|--------------------------------------------------
B|--------------------------------------------------
G|--5--3--5--3--2--3--2--3--7--5--7--5-----5-----5--
D|--------------------------------------8-----8-----
A|--------------------------------------------------
D|--------------------------------------------------


e|--------------------------------------------------
B|--4--3--4--3-----3-----3--6--4--6--4--3--4--3--4--
G|--------------5-----5-----------------------------
D|--------------------------------------------------
A|--------------------------------------------------
D|--------------------------------------------------


e|--------------------------------------------------
B|--------------------------------------------------
G|--5--3--5--3--2--3--2--3--7--5--7--5-----5-----5--
D|--------------------------------------8-----8-----
A|--------------------------------------------------
D|--------------------------------------------------


e|--------------------------------------6--5--------
B|--4--3--4--3-----3-----3--------------------8--6--
G|--------------5-----5-----------------------------
D|--------------------------------------------------
A|--------------------------6--5--6--5--------------
D|--------------------------------------------------


e|------------------------------------------------|
B|------------------------------------------------|
G|--7--5--7-------------5--5-----5----------------|
D|-----------5----7--8--------8----------5--7--8--|
A|----------------------------------8-------------|
D|------------------------------------------------| x2


e|---------------------------------------------------
B|-----------8----6----------------------------------
G|--7--5--7----------8--7--5-----5--7----------------
D|----------------------------8----------7--5-----5--
A|---------------------------------------------8-----
D|---------------------------------------------------

Repeat from *.


Last revised: 9/13/99

VGJam Tabs Altered Beast - "Level 1"
Tabs database last modified Tuesday, 01-Nov-2016 19:14:53 UTC.
Copyright © 1999 - 2016 VideoGameJam.com. All rights reserved.