VGJam Tabs The Revenge of Shinobi
The Revenge of Shinobi
"China Town" - Guitar tab
Platform(s):Sega Genesis
Tabbed by:Vincent Bouchard
Last modified:2006-10-17
Print it:Original file (.TXT)
Hear it:MIDI file
                                   CHINA TOWN
                             Revenge of the Shinobi

Transcribed by Vincent Bouchard

Gtr I (E A D G B E) - 'Accoustic'
Gtr II (E A D G B E) - 'Lead'

 Intro
  Q=130
 4/4
  Gtr I
  S S S S e e e e Q    S S S S e  S   S   S   S   e  Q
|--------------------|----------------------------------|
|--------------------|----------------------------------|
|-7-7-7-7-5-7--------|-7-7-7-7-7-(7)-(7)-(7)-(7)-(7)----|
|-------------5-7----|----------------------------------|
|--------------------|----------------------------------|
|--------------------|----------------------------------|


  S S S S e e e e Q    S S S S e  S   S   S   S   e  Q
|--------------------|----------------------------------|
|--------------------|----------------------------------|
|-7-7-7-7-5-7--------|-7-7-7-7-7-(7)-(7)-(7)-(7)-(7)----|
|-------------5-7----|----------------------------------|
|--------------------|----------------------------------|
|--------------------|----------------------------------|


  S S S S e e e e Q    S S S S e  S   S   S   S   e  Q
|--------------------|----------------------------------|
|--------------------|----------------------------------|
|-7-7-7-7-5-7--------|-7-7-7-7-7-(7)-(7)-(7)-(7)-(7)----|
|-------------5-7----|----------------------------------|
|--------------------|----------------------------------|
|--------------------|----------------------------------|


  S S S S e e e e Q    W
|--------------------|------|
|--------------------|------|
|-7-7-7-7-5-7--------|------|
|-------------5-7----|------|
|--------------------|------|
|--------------------|------|


 Main
   S S S S e e e e Q      S  S S S e e  e e  e e
|---------------------|--------------------------|
|---------------------|--------------------------|
|--7-7-7-7-5-7--------|---7--7-7-7-7-5--7------5-|
|--------------5-7----|-------------------5--7---|
|---------------------|--------------------------|
|---------------------|--------------------------|
|
| Gtr II
|  W                     +H             Q    Q
|---------------------|--------------------------|
|---------------------|--------------------------|
|-14------------------|-(14)-----------12---14---|
|---------------------|--------------------------|
|---------------------|--------------------------|
|---------------------|--------------------------|


   S S S S e e e e Q      S  S S S e e  e e  e e
|---------------------|--------------------------|
|---------------------|--------------------------|
|--7-7-7-7-5-7--------|---7--7-7-7-7-5--7------5-|
|--------------5-7----|-------------------5--7---|
|---------------------|--------------------------|
|---------------------|--------------------------|
|
|  W                     +H             Q    Q
|---------------------|--------------------------|
|---------------------|--------------------------|
|---------------------|--------------------------|
|-12------------------|-(12)----------------12---|
|---------------------|----------------15--------|
|---------------------|--------------------------|


   S S S S e e e e Q      S  S S S e e e e  e e
|---------------------|-------------------------|
|---------------------|-------------------------|
|--7-7-7-7-5-7--------|---7--7-7-7-7-5-7------5-|
|--------------5-7----|------------------5--7---|
|---------------------|-------------------------|
|---------------------|-------------------------|
|
|  W                     +H.                Q
|---------------------|-------------------------|
|---------------------|-------------------------|
|-12------------------|-(12)--------------------|
|---------------------|--------------------15---|
|---------------------|-------------------------|
|---------------------|-------------------------|


   S S S S e e e e Q      S  S S S e e e e  e e
|---------------------|-------------------------|
|---------------------|-------------------------|
|--7-7-7-7-5-7--------|---7--7-7-7-7-5-7------5-|
|--------------5-7----|------------------5--7---|
|---------------------|-------------------------|
|---------------------|-------------------------|
|
|  W                     +H.                Q
|---------------------|-------------------------|
|---------------------|-------------------------|
|---------------------|-------------------------|
|-14------------------|-(14)---------------12---|
|---------------------|-------------------------|
|---------------------|-------------------------|


   S S S S e e e e Q      S  S S S e e  e e  e e
|---------------------|--------------------------|
|---------------------|--------------------------|
|--7-7-7-7-5-7--------|---7--7-7-7-7-5--7------5-|
|--------------5-7----|-------------------5--7---|
|---------------------|--------------------------|
|---------------------|--------------------------|
|
|  W                     +H             Q    Q
|---------------------|--------------------------|
|---------------------|--------------------------|
|-14------------------|-(14)-----------12---14---|
|---------------------|--------------------------|
|---------------------|--------------------------|
|---------------------|--------------------------|


   S S S S e e e e Q      S  S S S e e  e e  e e
|---------------------|--------------------------|
|---------------------|--------------------------|
|--7-7-7-7-5-7--------|---7--7-7-7-7-5--7------5-|
|--------------5-7----|-------------------5--7---|
|---------------------|--------------------------|
|---------------------|--------------------------|
|
|  W                     +H             Q    Q
|---------------------|--------------------------|
|---------------------|--------------------------|
|---------------------|--------------------------|
|-12------------------|-(12)----------------12---|
|---------------------|----------------15--------|
|---------------------|--------------------------|


   S S S S e e e e Q      S  S S S e e e e  e e
|---------------------|-------------------------|
|---------------------|-------------------------|
|--7-7-7-7-5-7--------|---7--7-7-7-7-5-7------5-|
|--------------5-7----|------------------5--7---|
|---------------------|-------------------------|
|---------------------|-------------------------|
|
|  W                     +H.                Q
|---------------------|-------------------------|
|---------------------|-------------------------|
|-12------------------|-(12)---------------14---|
|---------------------|-------------------------|
|---------------------|-------------------------|
|---------------------|-------------------------|


   e S S S S e e e Q      e  S S S S e  e e  Q
|---------------------|-------------------------|
|---------------------|-------------------------|
|----5-5-5-5-7--------|------5-5-5-5-7----------|
|--5-----------7-5----|---5-------------7-5-----|
|---------------------|-------------------------|
|---------------------|-------------------------|
|
|  W                     +H             Q    Q
|---------------------|-------------------------|
|-13------------------|-(13)----------------13--|
|---------------------|----------------14-------|
|---------------------|-------------------------|
|---------------------|-------------------------|
|---------------------|-------------------------|


   S  S S S e e e e  q     S  S S S e e e e  q
|-----------------------|-----------------------|
|-----------------------|-----------------------|
|--7--7-7-7-7---7-7-----|--7--7-7-7-7---7-7-----|
|-------------5------5--|-------------5------5--|
|-----------------------|-----------------------|
|-----------------------|-----------------------|
|
|  H.                Q     H.                Q
|-----------------------|-----------------------|
|-15--------------------|-----------------------|
|-------------------14--|-12----------------14--|
|-----------------------|-----------------------|
|-----------------------|-----------------------|
|-----------------------|-----------------------|


   S S S S e e e e q      S  S S S e  e  e  e  q
|---------------------|---------------------------|
|---------------------|---------------------------|
|--7-7-7-7-7---7-7----|---7--7-7-7-7-----7--7-----|
|------------5-----5--|---------------5--------5--|
|---------------------|---------------------------|
|---------------------|---------------------------|
|
|  W                     +Q.          E  E  E  Q
|---------------------|---------------------------|
|---------------------|---------------------------|
|---------------------|---------------------------|
|-12------------------|-(12)------------14-15-14--|
|---------------------|--------------15-----------|
|---------------------|---------------------------|


   S S S S e e e e q      S  S S S e e e e q
|---------------------|-----------------------|
|---------------------|-----------------------|
|--7-7-7-7-7---7-7----|---7--7-7-7-7---7-7----|
|------------5-----5--|--------------5-----5--|
|---------------------|-----------------------|
|---------------------|-----------------------|
|
|  W                     +W
|---------------------|-----------------------|
|---------------------|-----------------------|
|---------------------|-----------------------|
|-12------------------|-(12)------------------|
|---------------------|-----------------------|
|---------------------|-----------------------|


   S S S S e e e e q     S S S S  e e  e e  q
|---------------------|------------------------|
|---------------------|------------------------|
|--7-7-7-7-7---7-7----|--7-7-7-7--7----7-7-----|
|------------5-----5--|-------------5-------5--|
|---------------------|------------------------|
|---------------------|------------------------|
|
|  W                     Q        Q    Q    Q
|---------------------|------------------------|
|---------------------|-13---------------------|
|---------------------|----------15---14---12--|
|-12------------------|------------------------|
|---------------------|------------------------|
|---------------------|------------------------|


   S S S S e e e e q     S S S S e e e e q
|---------------------|---------------------|
|---------------------|---------------------|
|--7-7-7-7-7---7-7----|--7-7-7-7-7---7-7----|
|------------5-----5--|------------5-----5--|
|---------------------|---------------------|
|---------------------|---------------------|
|
|  W                     W
|---------------------|---------------------|
|---------------------|-15------------------|
|-14------------------|---------------------|
|---------------------|---------------------|
|---------------------|---------------------|
|---------------------|---------------------|


   S S S S e e e e q      S  S S S  e e  e e  q
|---------------------|--------------------------|
|---------------------|--------------------------|
|--7-7-7-7-7---7-7----|---7--7-7-7--7----7-7-----|
|------------5-----5--|---------------5-------5--|
|---------------------|--------------------------|
|---------------------|--------------------------|
|
|  W                     +Q         Q    Q    Q
|-17------------------|-(17)-------15---13---15--|
|---------------------|--------------------------|
|---------------------|--------------------------|
|---------------------|--------------------------|
|---------------------|--------------------------|
|---------------------|--------------------------|


   S S S S e e e e q      S  S S S e e e e  q
|---------------------|------------------------|
|---------------------|------------------------|
|--7-7-7-7-7---7-7----|---7--7-7-7-7---7-7-----|
|------------5-----5--|--------------5------5--|
|---------------------|------------------------|
|---------------------|------------------------|
|
|  W                     +H.                Q
|-12------------------|-(12)-------------------|
|---------------------|--------------------13--|
|---------------------|------------------------|
|---------------------|------------------------|
|---------------------|------------------------|
|---------------------|------------------------|


   S S S S e e e e q      S  S S S e e e e q
|---------------------|-----------------------*|
|---------------------|-----------------------*|
|--7-7-7-7-7---7-7----|---7--7-7-7-7---7-7----*|
|------------5-----5--|--------------5-----5--*|
|---------------------|-----------------------*|
|---------------------|-----------------------*|
|
|  W                     +W
|---------------------|-----------------------*|
|-15------------------|-(15)------------------*|
|---------------------|-----------------------*|
|---------------------|-----------------------*|
|---------------------|-----------------------*|
|---------------------|-----------------------*|


Duration Legend
---------------
W - whole; H - half; Q - quarter; E - 8th; S - 16th; T - 32nd; X - 64th; a - acciaccatura
+ - note tied to previous; . - note dotted; .. - note double dotted
Uncapitalized letters represent notes that are staccato (1/2 duration)
Irregular groupings are notated above the duration line
Duration letters will always appear directly above the note/fret number it represents the
duration for.  Duration letters with no fret number below them represent rests.  Multi-
bar rests are notated in the form Wxn, where n is the number of bars to rest for.  Low
melody durations appear below the staff

Tablature Legend
----------------
 h   - hammer-on
 p   - pull-off
 b   - bend
 pb  - pre-bend
 r   - bend release (if no number after the r, then release immediately)
 /\  - slide into or out of (from/to "nowhere")
 s   - legato slide
 S   - shift slide
  - natural harmonic
[n]  - artificial harmonic
n(n) - tapped harmonic
 ~   - vibrato
 tr  - trill
 T   - tap
 TP  - trem. picking
 PM  - palm muting
\n/  - tremolo bar dip; n = amount to dip
 \n  - tremolo bar down
 n/  - tremolo bar up
/n\  - tremolo bar inverted dip
 =   - hold bend; also acts as connecting device for hammers/pulls
 <>  - volume swell (louder/softer)
 x   - on rhythm slash represents muted slash
 o   - on rhythm slash represents single note slash

Misc Legend
-----------
 |  - bar
||  - double bar
||o - repeat start
o|| - repeat end
*|  - double bar (ending)
 :  - bar (freetime)
 $  - Segno
 &  - Coda
Tempo markers -  = BPM(8/16=s8/s16), where s8 = swing 8ths, s16 = swing 16ths


***************************************************************************************
* Generated using Power Tab Editor by Brad Larsen - http://powertab.guitarnetwork.org *
***************************************************************************************

VGJam Tabs The Revenge of Shinobi - "China Town"
Tabs database last modified Tuesday, 01-Nov-2016 19:14:53 UTC.
Copyright © 1999 - 2016 VideoGameJam.com. All rights reserved.