VGJam Tabs The Revenge of Shinobi
The Revenge of Shinobi
"Long Distance" - Guitar tab
Platform(s):Sega Genesis
Tabbed by:Vincent Bouchard
Last modified:2006-10-13
Print it:Original file (.TXT)
Hear it:MIDI file
                                  LONG DISTANCE
                              Revenge of the Shinobi

Transcribed by Vincent Bouchard

Gtr I (E A D G B E) - 'Lead 1'
Gtr II (E A D G B E) - 'Lead 2'

 Section 1
  Q=150
 4/4
  Gtr I
                   |--3--|               |-3--|
  H.      q    Q  +E  E  E H      Q  Q   E  E E  Q    H     H
|------------|------------------|-------------------|------------|
|------------|------------------|-------------------|------------|
|------------|------------------|----9--12-11-9-----|-9----11----|
|---------9--|-9--(9)-7----7----|-9-------------12--|------------|
|-7----------|----------10------|-------------------|------------|
|------------|------------------|-------------------|------------|


  |--3--|
  E  E  E  Q  H
|------------------------------|
|---------12-------------------|
|-9-11-12-----9----------------|
|------------------------------|
|------------------------------|
|------------------------------|
|
| Gtr II
|             |--3--|  |--3--|
| H           E  E  E  E  E  E
|------------------------------|
|---------------------12----12-|
|-------------9-11-12----12----|
|------------------------------|
|------------------------------|
|------------------------------|


   |--3--|
   E  E  E  Q  H                   Q  Q  Q  Q     W
|-------------------------------|--------------|------------|
|----------12-------------------|--------------|------------|
|--9-11-12-----9----------------|--------------|------------|
|-------------------------------|-10--7--------|------------|
|-------------------------------|--------7-----|-10---------|
|-------------------------------|-----------8--|------------|
|
|              |--3--|  |--3--|
|  H           E  E  E  E  E  E    W              H    H
|-12----------------------------|--------------|------------|
|----------------------12----12-|--------------|------------|
|--------------9-11-12----12----|--9-----------|------------|
|-------------------------------|--------------|------------|
|-------------------------------|--------------|-10----9----|
|-------------------------------|--------------|------------|


  |3| |-3-| |3| |-3-|    |3-|  |--3--|  |3-|  |--3--|
  Q E E E E Q E E E E    Q  E  E  E  E  Q  E  E  E  E
|---------------------|-------------------------------|
|---------------------|-------------------------------|
|---------------------|-------------------------------|
|---------------------|-------------------------------|
|-7-7-7-7-7-7-7-7-7-7-|-10-10-10-10-10-10-10-10-10-10-|
|---------------------|-------------------------------|


  |3| |-3-| |3| |-3-|   |3| |-3-|
  Q E E E E Q E E E E   Q E E E E  H
|---------------------|-----------------*|
|---------------------|-----------------*|
|-----------9-9-9-9-9-|-8-8-8-8-9-11----*|
|-9-9-9-9-9-----------|-----------------*|
|---------------------|-----------------*|
|---------------------|-----------------*|


Duration Legend
---------------
W - whole; H - half; Q - quarter; E - 8th; S - 16th; T - 32nd; X - 64th; a - acciaccatura
+ - note tied to previous; . - note dotted; .. - note double dotted
Uncapitalized letters represent notes that are staccato (1/2 duration)
Irregular groupings are notated above the duration line
Duration letters will always appear directly above the note/fret number it represents the
duration for.  Duration letters with no fret number below them represent rests.  Multi-
bar rests are notated in the form Wxn, where n is the number of bars to rest for.  Low
melody durations appear below the staff

Tablature Legend
----------------
 h   - hammer-on
 p   - pull-off
 b   - bend
 pb  - pre-bend
 r   - bend release (if no number after the r, then release immediately)
 /\  - slide into or out of (from/to "nowhere")
 s   - legato slide
 S   - shift slide
  - natural harmonic
[n]  - artificial harmonic
n(n) - tapped harmonic
 ~   - vibrato
 tr  - trill
 T   - tap
 TP  - trem. picking
 PM  - palm muting
\n/  - tremolo bar dip; n = amount to dip
 \n  - tremolo bar down
 n/  - tremolo bar up
/n\  - tremolo bar inverted dip
 =   - hold bend; also acts as connecting device for hammers/pulls
 <>  - volume swell (louder/softer)
 x   - on rhythm slash represents muted slash
 o   - on rhythm slash represents single note slash

Misc Legend
-----------
 |  - bar
||  - double bar
||o - repeat start
o|| - repeat end
*|  - double bar (ending)
 :  - bar (freetime)
 $  - Segno
 &  - Coda
Tempo markers -  = BPM(8/16=s8/s16), where s8 = swing 8ths, s16 = swing 16ths


***************************************************************************************
* Generated using Power Tab Editor by Brad Larsen - http://powertab.guitarnetwork.org *
***************************************************************************************

VGJam Tabs The Revenge of Shinobi - "Long Distance"
Tabs database last modified Tuesday, 01-Nov-2016 19:14:53 UTC.
Copyright © 1999 - 2016 VideoGameJam.com. All rights reserved.