VGJam Tabs Sonic Spinball
Sonic Spinball
"Options menu" - Guitar tab
Platform(s):Sega Genesis
Tabbed by:Orion
Last modified:2000-05-29
Print it:Original file (.TXT)
Hear it:MIDI file
Sonic Spinball-Options Menu - 5/29/00
---------------------------------------------------------------
AIM - Norman Inc
Orion - 
---------------------------------------------------------------

Tuning : E A D G B E 	Time Signature: 4/4


Lots of Distortion!!!

 |       |       |       |        |       |       |       |        
|--------------------------------|--------------------------------|
|--------------------------------|----------------------------3---|
|3---3---3-------3-----------1---|----1---2-------3-----------0---|
|5---5---4-------3-----------1---|----1---1-------1---------------|
|--------------------------------|--------------------------------|
|--------------------------------|--------------------------------|

 |       |       |       |        |       |       |       |        
|--------------------------------|--------------------------------|
|----3---2-------1-----------1---|----1---1-------1---------------|
|----0---0-------0---------------|----------------0---------------|
|----------------------------3---|----3---4-----------------------|
|--------------------------------|--------------------------------|
|--------------------------------|--------------------------------|

VGJam Tabs Sonic Spinball - "Options menu"
Tabs database last modified Tuesday, 01-Nov-2016 19:14:53 UTC.
Copyright © 1999 - 2016 VideoGameJam.com. All rights reserved.