VGJam Tabs Bionic Commando
Bionic Commando
"Level 1" - Guitar tab
Platform(s):Arcade
Tabbed by:PAKOMAN
Last modified:2001-03-07
Print it:Original file (.TXT)
BIONIC COMMANDO LEVEL 1

TablEdited by PAKOMAN
Tuning : E A D G B E 	Time Signature: 4/4

 |       |       |       |        |       |       |       |        |       |       |       |        |       |       |       |        
|--------------------------------|--------------------------------|--------------------------------|--------------------------------|
|--------------------------------|--------------------------------|--------------------------------|--------------------------------|
|--------------------------------|--------------------------------|--------------------------------|--------------------------------|
|---------10-----------8---------|---------10------------8----12--|--------------------------------|--------------------------------|
|--11----------9-----------------|-11---------------9-------------|--------------------------------|--------------------------------|
|--------------------------------|--------------------------------|--------------------------------|--------------------------------|


 |       |       |       |        |       |       |       |        |       |       |       |        |       |       |       |        
|--------------------------------|--------------------------------|--------------------------------|--------------------------------|
|--------------------------------|----------------1---2---4-------|2---1-------1-------------------|--------------------------------|
|1-------------------------------|--------1---3---------------3---|--------3-----------------------|--------------------------------|
|--------------------------------|----4---------------------------|--------------------------------|--------------------------------|
|--------------------------------|--------------------------------|--------------------------------|--------------------------------|
|--------------------------------|--------------------------------|--------------------------------|--------------------------------|

 |       |       |       |        |       |       |       |        |       |       |       |        |       |       |       |        
|--------------------------------|--------------------------------|--------------------------------|--------------------------------|
|2---1-------1-------------------|--------------------------------|--------------------------------|--------------------------------|
|--------3-----------------------|--------1---------------3-------|1-------------------------------|--------------------------------|
|--------------------------------|----------------4---------------|--------------------------------|--------------------------------|
|--------------------------------|--------------------------------|--------------------------------|--------------------------------|
|--------------------------------|--------------------------------|--------------------------------|--------------------------------|

 |       |       |       |        |       |       |       |        |       |       |       |        |       |       |       |        
|--------------------------------|--------------------------------|--------------------------------|--------------------------------|
|--------------------------------|----------------1---2---4-------|2---1-------1-------------------|--------------------------------|
|1-------------------------------|--------1---3---------------3---|--------3-----------------------|--------------------------------|
|--------------------------------|----4---------------------------|--------------------------------|--------------------------------|
|--------------------------------|--------------------------------|--------------------------------|--------------------------------|
|--------------------------------|--------------------------------|--------------------------------|--------------------------------|

 |       |       |       |        |       |       |       |        |       |       |       |        |       |       |       |        
|--------------------------------|--------------------------------|--------------------------------|--------------------------------|
|2---1-------1-------------------|--------------------------------|--------------------------------|--------------------------------|
|--------3-----------------------|--------1---------------3-------|1-------------------------------|--------------------------------|
|--------------------------------|----------------4---------------|--------------------------------|--------------------------------|
|--------------------------------|--------------------------------|--------------------------------|--------------------------------|
|--------------------------------|--------------------------------|--------------------------------|--------------------------------|


 |       |       |       |        |       |       |       |        |       |       |       |        |       |       |       |        
|------------8-------9-------11--|------------------------9---8---|----6---------------------------|4---4-----------4---------------|
|9---11--------------------------|----9---9-----------------------|----------------9-------7---9---|--------------------------------|
|--------------------------------|----------------11--------------|--------------------------------|--------------------------------|
|--------------------------------|--------------------------------|--------------------------------|--------------------------------|
|--------------------------------|--------------------------------|--------------------------------|--------------------------------|
|--------------------------------|--------------------------------|--------------------------------|--------------------------------|

 |       |       |       |        |       |       |       |        |       |       |       |        |       |       |       |        
|----------------4---------------|----------------2---------------|--------------------------------|----------------4---------------|
|--------------------------------|--------------------------------|----------------4---------------|--------------------------------|
|--------------------------------|--------------------------------|--------------------------------|--------------------------------|
|--------------------------------|--------------------------------|--------------------------------|--------------------------------|
|--------------------------------|--------------------------------|--------------------------------|--------------------------------|
|--------------------------------|--------------------------------|--------------------------------|--------------------------------|

 |       |       |       |        |       |       |       |        |       |       |       |        |       |       |       |        
|----------------4---------------|----------------2---------------|--------------------------------|----------------4---------------|
|--------------------------------|--------------------------------|----------------4---------------|--------------------------------|
|--------------------------------|--------------------------------|--------------------------------|--------------------------------|
|--------------------------------|--------------------------------|--------------------------------|--------------------------------|
|--------------------------------|--------------------------------|--------------------------------|--------------------------------|
|--------------------------------|--------------------------------|--------------------------------|--------------------------------|

 |       |       |       |        |       |       |       |        |       |       |       |        |       |       |       |        
|----------------4---------------|----------------2---------------|--------------------------------|----------------4---------------|
|--------------------------------|--------------------------------|----------------4---------------|--------------------------------|
|--------------------------------|--------------------------------|--------------------------------|--------------------------------|
|--------------------------------|--------------------------------|--------------------------------|--------------------------------|
|--------------------------------|--------------------------------|--------------------------------|--------------------------------|
|--------------------------------|--------------------------------|--------------------------------|--------------------------------|

 |       |       |       |        |       |       |       |        |       |       |       |        |       |       |       |        
|----------------4---------------|----------------2---------------|--------------------------------|----------------4---------------|
|--------------------------------|--------------------------------|----------------4---------------|--------------------------------|
|--------------------------------|--------------------------------|--------------------------------|--------------------------------|
|--------------------------------|--------------------------------|--------------------------------|--------------------------------|
|--------------------------------|--------------------------------|--------------------------------|--------------------------------|
|--------------------------------|--------------------------------|--------------------------------|--------------------------------|

VGJam Tabs Bionic Commando - "Level 1"
Tabs database last modified Tuesday, 01-Nov-2016 19:14:53 UTC.
Copyright © 1999 - 2016 VideoGameJam.com. All rights reserved.