VGJam Tabs Sonic & Knuckles
Sonic & Knuckles
"Doomsday Zone" - Guitar tab
Platform(s):Sega Genesis
Tabbed by:Shingo Beyeler
Last modified:2000-11-15
Print it:Original file (.TXT)
Tabbed by: Shingo Beyeler (ShoFirst@Seanbaby.com)
Written by: The Good People At Sega (Actually, I'm not too sure) 
Song: "Doomsday Zone," from Sonic and Knuckles(I think...or 3)

Key: / = Slide up to
        \ = Slide down to

Opening:
e---------------------------------------------------------------------------------------------
B--------------------------------------------------------------------------------------------
G--------------------------------------------------------------------------------------------
D--------------------------------------------------------------------------------------------
A--0/6--5-------0/6--5----4---------4---3---2-----3---2-------1---2---1----0-----
E------------------------------------------------------------------6------------------------

e----------------------------------------------
B---------------------------------------------
G---------------------------------------------
D---------------------------------------------
A--8--------------------------------6--7----   (repeat)
E------8--9--10--11--12--13------------

e------------------------------------------------------------
B------------------------------------------------------------
G-----------------------------------------------------------
D------------------------------------------------------------
A-----6--7--8-----8------7-------6----------------------    (repeat)
E-----------------------8-------6------5------5--6--8---

e---------------------------------------------------------
B---------------------------------------------------------
G---------------------------------------------------------
D---------------------------------------------------------
A--6--5--6--5---------8-------------------------------
E----------------8----------8--9--10--11--12--13--

e------------------------------------------------------------------------------------------
B------------------------------------------------------------------------------------------
G------------------------------------------------------------------------------------------
D------------------------------------------------------------------------------------------
A--5--7--9--8\6-----6--8--10--9\7-----7--9--11--10/8-----8--10--12--11--
E------------------------------------------------------------------------------------------

e---------------------------------------------------------------------
B---------------------------------------------------------------------
G---------------------------------------------------------------------
D--11--11--11/11/14--11-----10--10--10/10\------10----
A--------------------------------------------------------14----------(repeat)
E---------------------------------------------------------------------

Then, start from the top again.

VGJam Tabs Sonic & Knuckles - "Doomsday Zone"
Tabs database last modified Tuesday, 01-Nov-2016 19:14:53 UTC.
Copyright © 1999 - 2016 VideoGameJam.com. All rights reserved.