VGJam Tabs Sonic the Hedgehog
Sonic the Hedgehog
"Final Zone" - Guitar tab
Platform(s):Sega Genesis
Tabbed by:Amp
Last modified:2002-08-01
Print it:Original file (.TXT)
Hear it:MIDI file
Sonic the Hedgehog - Final Zone
Sega Genesis
Tabbed by - Supernaut@popmail.com



Easy to play one you get use to it. The notes in parenthesis are really high synth notes,
optional of course. When played, hold them out to the end of the bar.


e |--------------10-------------|--(12~)---------------10--------------|
B |--10--12--13------13--12--13-|--------------------------13--11--9---|
G |-----------------------------|-------14--12-------------------------|
D |-----------------------------|---------------14---------------------|
A |-----------------------------|--------------------------------------|
E |-----------------------------|--------------------------------------|



e |--------------10-------------|--(13~)-------------(15~)10--------(17~)--|
B |--10--12--13------13--12--13-|-----------------------------13--11--9----|
G |-----------------------------|-------14--12-----------------------------|
D |-----------------------------|---------------14-------------------------|
A |-----------------------------|------------------------------------------|
E |-----------------------------|------------------------------------------|



e |-----------------------------10---|
B |--10~-----12--13--12~----13-------|
G |----------------------------------|
D |----------------------------------|
A |----------------------------------|
E |----------------------------------|


VGJam Tabs Sonic the Hedgehog - "Final Zone"
Tabs database last modified Tuesday, 01-Nov-2016 19:14:53 UTC.
Copyright © 1999 - 2016 VideoGameJam.com. All rights reserved.