VGJam Tabs Sonic the Hedgehog
Sonic the Hedgehog
"Green Hill Zone" - Guitar tab
Platform(s):Sega Genesis
Tabbed by:Deezer
Last modified:2002-08-11
Print it:Original file (.TXT)
Hear it:MIDI file
#----------------------------------PLEASE NOTE---------------------------------#
#This file is the author's own work and represents their interpretation of the #
#song. You may only use this file for private study, scholarship, or research. #
#------------------------------------------------------------------------------#


Sonic the Hedgehog (Sega Genesis)
"Green Hill Zone"

Originally composed by: ?
------------------------------------------------------------------------------
Tabbed by: Deezer (deezer@kontek.net)
For http://www.kontek.net/vgjam/
------------------------------------------------------------------------------

Standard Tuning - (low to high) EADGBe

You'll need a 24-fret guitar for this classic.


Intro:
======

 E5      D5      E5      D5      E5    D5    F5      E5      D5
---------------------------------------------------------------------------
---------------------------------------------------------------------------
-16------14------16------14------16----14----17------16------14------------
-14------12------14------12------14----12----15------14------12------------
---------------------------------------------------------------------------
---------------------------------------------------------------------------

 D5      E5      F5    D5      E5      F5            E5
--------------------------------------------------------------------------
--------------------------------------------------------------------------
-14------16------17----14------16------17----17------16-------------------
-12------14------15----12------14------15----15------14-------------------
--------------------------------------------------------------------------
--------------------------------------------------------------------------

Main riff:
==========

-20-------20-19----20-19------------------24-22----20-19----20-19-----
----22-------------------20------------22-------------------------20--
----------------------------------------------------------------------
----------------------------------------------------------------------
----------------------------------------------------------------------
----------------------------------------------------------------------

-20-------20-19----20-19---------------17-17-------17-------17----------
----22-------------------20------------------18-------20-------20-------
---------------------------------------------------------------------17-
------------------------------------------------------------------------
------------------------------------------------------------------------
------------------------------------------------------------------------

-20-------20-19----20-19------------------24-22----20-19----20-19-----
----22-------------------20------------22-------------------------20--
----------------------------------------------------------------------
----------------------------------------------------------------------
----------------------------------------------------------------------
----------------------------------------------------------------------

-20-------20-19----20-19---------------17-17-------17-------17----------------
----22-------------------20------------------18-------20-------20----------17-
---------------------------------------------------------------------17-17----
------------------------------------------------------------------------------
------------------------------------------------------------------------------
------------------------------------------------------------------------------

--------------------------------------------------------------------------
-----------------------------------17----------------------------------17-
-19--------------------------17-19-------------------------------17-17----
--------------------------------------------------------------------------
--------------------------------------------------------------------------
--------------------------------------------------------------------------

--------------------------------------------------------------------------
--------------------------------------------------------------------------
-20--------------------------17-20-19-------------------------------------
--------------------------------------------------------------------------
--------------------------------------------------------------------------
--------------------------------------------------------------------------

Back to Main Riff.


Last modified: 08/11/2002

VGJam Tabs Sonic the Hedgehog - "Green Hill Zone"
Tabs database last modified Tuesday, 01-Nov-2016 19:14:53 UTC.
Copyright © 1999 - 2016 VideoGameJam.com. All rights reserved.