VGJam Tabs Sonic the Hedgehog
Sonic the Hedgehog
"Labyrinth Zone" - Guitar tab
Platform(s):Sega Genesis
Tabbed by:Deezer
Last modified:2002-08-11
Date added:1999-04-23
Print it:Original file (.TXT)
Hear it:MIDI file
#----------------------------------PLEASE NOTE---------------------------------#
#This file is the author's own work and represents their interpretation of the #
#song. You may only use this file for private study, scholarship, or research. #
#------------------------------------------------------------------------------#

Sonic the Hedgehog (Sega Genesis)
"Labyrinth Zone"

Originally composed by: ?
------------------------------------------------------------------------------
Tabbed by: Deezer (deezer@usa.net)
For http://www.kontek.net/vgjam/
------------------------------------------------------------------------------


Standard tuning - EADGBe

|----------------------------------------------------------|
|----------------------------------------------------------|
|-------------------2----4-------5---4---2--------2--------|
|--2---5---2---5-----------------------------5-------5--2--|
|----------------------------------------------------------|
|----------------------------------------------------------| x2

------------------------0-------1---0----------------------
------1-------1----3--------------------3---1---3---1------
--2-------2--------------------------------------------2---
-----------------------------------------------------------
-----------------------------------------------------------
-----------------------------------------------------------

------------------------0-------1---0-----------------------------------
------1-------1----3--------------------3---1---------------3--1--3--1--
--2-------2-----------------------------------------2-------------------
------------------------------------------------------------------------
------------------------------------------------------------------------
------------------------------------------------------------------------

Enter second guitar, which is always doubled an octave lower:
--------------------------
-----------------------15-
-12-12---14----15--15-----
--------------------------
--------------------------
--------------------------

G1|-12---------------------------------------13------15----
U |--------------------------------------------------------
I |--------------------------------------------------------
T |--------------------------------------------------------
A |--------------------------------------------------------
R |--------------------------------------------------------
  |
G2|-12-------12------------------12------------------------
U |------13------15---13---15--------15--13--12--13--15----
I |--------------------------------------------------------
T |--------------------------------------------------------
A |--------------------------------------------------------
R |--------------------------------------------------------


G1|-12---------------------------------------------
U |------------------------------------------------
I |------------------------------------------------
T |------------------------------------------------
A |------------------------------------------------
R |------------------------------------------------
  |
G2|-12----------12---------------12----------------
U |---------13------15---13---15-------------------
I |-----14-----------------------------------------
T |------------------------------------------------
A |------------------------------------------------
R |------------------------------------------------


G1|-12--------------------------------------------13------15---
U |------------------------------------------------------------
I |------------------------------------------------------------
T |------------------------------------------------------------
A |------------------------------------------------------------
R |------------------------------------------------------------
  |
G2|-12----------12---------------12-----------12---------------
U |---------13------15---13---15----------13------15--13--15---
I |-----14----------------------------14-----------------------
T |------------------------------------------------------------
A |------------------------------------------------------------
R |------------------------------------------------------------


G1|-12--------------------------------------------------------------------
U |-----------------------------------------------------------------------
I |---------------------------------3---2---------------5-----------------
T |-----------------------------------------5---3---2---------------------
A |-----------------------------------------------------------------------
R |-----------------------------------------------------------------------
  |
G2|-13--12----------------------------------------------------------------
U |---------15--13-----------------------------------------13-13-13-------
I |-----------------15--14--12--------------------------14----------14-12-
T |-----------------------------15----------------------------------------
A |-----------------------------------------------------------------------
R |-----------------------------------------------------------------------

Repeat from beginning.


Revisions:
 4/22/99 - First draft.
 8/11/2002 - Transposed up an octave, added second instrument.

VGJam Tabs Sonic the Hedgehog - "Labyrinth Zone"
Tabs database last modified Tuesday, 01-Nov-2016 19:14:53 UTC.
Copyright © 1999 - 2016 VideoGameJam.com. All rights reserved.