VGJam Tabs Sonic the Hedgehog
Sonic the Hedgehog
"Marble Zone" - Guitar tab
Platform(s):Sega Genesis
Tabbed by:Deezer
Last modified:2002-08-11
Print it:Original file (.TXT)
Hear it:MIDI file
#----------------------------------PLEASE NOTE---------------------------------#
#This file is the author's own work and represents their interpretation of the #
#song. You may only use this file for private study, scholarship, or research. #
#------------------------------------------------------------------------------#


Sonic the Hedgehog (Sega Genesis)
"Marble Zone"

Originally composed by: ?
------------------------------------------------------------------------------
Tabbed by: Deezer (deezer@kontek.net)
For http://www.kontek.net/vgjam/
------------------------------------------------------------------------------

Symbols used:
 h = hammer-on
 p = pull-off

Standard Tuning - (low to high) EADGBe


--------------7----7------7----7------7----7------7--------------------------
----------------------10----------10----------10-----10---------8----10--6---
-----------9---------------------------------------------9-------------------
-7--9--10---------------------------------------------------10---------------
-----------------------------------------------------------------------------
-----------------------------------------------------------------------------

----------------------------------------------7---------------------------
-10----10--8--10----10--8--10----10--8--10--------------------------------
---------------------------------------------------10------9--------------
--------------------------------------------------------------------------
--------------------------------------------------------------------------
--------------------------------------------------------------------------

--------------7----7------7----7------7----7------7--------------------------
----------------------10----------10----------10-----10---------8----10--6---
-----------9---------------------------------------------9-------------------
-7--9--10---------------------------------------------------10---------------
-----------------------------------------------------------------------------
-----------------------------------------------------------------------------

---------------7-----------------7----7--------------------------------------
-10-----------------9-----------------------10-------------------------------
-----------------------------------------------------------------------------
-----------------------------------------------------------------------------
-----------------------------------------------------------------------------
-----------------------------------------------------------------------------

|-17--20p17h20--17--19----------19------------------------17--19------|
|-----------------------20----------18--22p18h22--18--20----------20--|
|---------------------------19----------------------------------------|
|---------------------------------------------------------------------|
|---------------------------------------------------------------------|
|---------------------------------------------------------------------| x2


Back to beginning.


Last modified: 08/11/2002

VGJam Tabs Sonic the Hedgehog - "Marble Zone"
Tabs database last modified Tuesday, 01-Nov-2016 19:14:53 UTC.
Copyright © 1999 - 2016 VideoGameJam.com. All rights reserved.