VGJam Tabs Sonic the Hedgehog
Sonic the Hedgehog
"Marble Zone" - Bass tab
Platform(s):Sega Genesis
Tabbed by:rwin4
Last modified:2003-02-14
Print it:Original file (.TXT)
Hear it:MIDI file
Game: Sonic The Hedgehog
System: Sega Genesis
Board:  Marble Zone
Submitted by: rwin4

Once you reach the end of this tab the first time, continue repeating as
necessary from where the asterisks are.

G-----------------*-----------------------------------------------------
D---2--2--2-------*------2--2--0--0--2--2--------2--2--0--0--2--2--0----
A-----------------*0--0--------------------0--0-------------------------
E---------------0-*-----------------------------------------------------

G------2--2--------2--2--------2--2--------2--2-------------------------
D---0--------3--3--------0--0--------3--3--------------0--0--------0----
A------------------------------------------------------------2--2-------
E------------------------------------------------3--3-------------------

G------------------------------------0--0--------0--0-------------------
D---0--------0--0--------0--0--------------3--3--------------3--3--2----
A------------------2--2--------3--3--------------------2--2-------------
E------3--3-------------------------------------------------------------

G------------------------------------------------------------------2----
D---2--------------2--2--0--0--2--2--------2--2--0--0--2--2--0--0-------
A------------0--0--------------------0--0-------------------------------
E------0--0-------------------------------------------------------------

G---2--------2--2--------2--2--------2--2-------------------------------
D------3--3--------0--0--------3--3--------------3--3--0--0--3--3--2----
A------------------------------------------2--2-------------------------
E-----------------------------------------------------------------------

G------4--4--2--2--4--4-------------------------------------------------
D---2--------------------------2--2--------2--2--------2--2--------2----
A------------------------0--0--------3--3--------0--0--------3--3-------
E-----------------------------------------------------------------------

G---------------------------------------------------------------------*
D---2-----------------------------------------------------------------*
A------0----0--------------------------0----0-------------------------*
E--------------3----3--1----1--3----3----------3----3--1----1--3----3-*

VGJam Tabs Sonic the Hedgehog - "Marble Zone"
Tabs database last modified Tuesday, 01-Nov-2016 19:14:53 UTC.
Copyright © 1999 - 2016 VideoGameJam.com. All rights reserved.