VGJam Tabs Sonic the Hedgehog
Sonic the Hedgehog
"Special Stage" - Guitar tab
Platform(s):Sega Genesis
Tabbed by:Amp
Last modified:2002-11-10
Print it:Original file (.TXT)
Hear it:MIDI file
Sonic the Hedgehog 
"Special Stage"
Sega Genesis
Music by Sonic Team
Tabbed by: amp (supernaut@popmail.com)


e |----------------------------------------------|
B |----------------------------------------------|
G |---9------10--12------9----------9------------|
D |-----------------------------10---------10----|
A |----------------------------------------------|
E |----------------------------------------------|

e |--------------------------------------------|
B |--------------------------------------------|
G |---9------10--12------9---------------------|
D |-------------------------10------12--10-----|
A |--------------------------------------------|
E |--------------------------------------------|

e |---------------------------------------|
B |---------------------------------------|
G |------9--10--9--10--12------9----------|
D |--12---------------------------10------|
A |---------------------------------------|
E |---------------------------------------|

e |----------------------------------------|
B |----------------------------10----------|
G |------9--10--9--10--12----------12------|
D |--12------------------------------------|
A |----------------------------------------|
E |----------------------------------------|


VGJam Tabs Sonic the Hedgehog - "Special Stage"
Tabs database last modified Tuesday, 01-Nov-2016 19:14:53 UTC.
Copyright © 1999 - 2016 VideoGameJam.com. All rights reserved.