VGJam Tabs Sonic the Hedgehog
Sonic the Hedgehog
"Spring Yard Zone" - Guitar tab
Platform(s):Sega Genesis
Tabbed by:Deezer
Last modified:2002-08-20
Print it:Original file (.TXT)
Hear it:MIDI file
#----------------------------------PLEASE NOTE---------------------------------#
#This file is the author's own work and represents their interpretation of the #
#song. You may only use this file for private study, scholarship, or research. #
#------------------------------------------------------------------------------#


Sonic the Hedgehog (Sega Genesis)
"Spring Yard Zone"

Originally composed by: ?
------------------------------------------------------------------------------
Tabbed by: Deezer (deezer@kontek.net)
For http://www.kontek.net/vgjam/
------------------------------------------------------------------------------

Symbols used:
 h = hammer-on
 p = pull-off

Standard Tuning - (low to high) EADGBe


-12--12------------12---------------------------13---------------13------
-----------13------------13--------------13h15------------13h15----------
---------------14--------------------14---------------14-----------------
-------------------------------------------------------------------------
-------------------------------------------------------------------------
-------------------------------------------------------------------------

-14--14------------14--------------13------------------------------------
-----------15--------------15--------------------------------------------
---------------16--------------------------------------------------------
-------------------------------------------------------------------------
-------------------------------------------------------------------------
-------------------------------------------------------------------------

-12--12------------12---------------------------13---------------13------
-----------13------------13--------------13h15------------13h15----------
---------------14--------------------14---------------14-----------------
-------------------------------------------------------------------------
-------------------------------------------------------------------------
-------------------------------------------------------------------------

-14--14------------14--------------13---13---15p13-15--17----------------
-----------15--------------15--------------------------------------------
---------------16--------------------------------------------------------
-------------------------------------------------------------------------
-------------------------------------------------------------------------
-------------------------------------------------------------------------


-13----12----------------------------------------------------------------
------------15---13---15---13------------------13-----------------13-----
-------------------------------14---15---15---------15---14--15----------
-------------------------------------------------------------------------
-------------------------------------------------------------------------
-------------------------------------------------------------------------

-13----12------------------------------------15-----17---17-15---13-----
------------15---13---15---13--------13---------------------------------
-------------------------------14---------------------------------------
------------------------------------------------------------------------
------------------------------------------------------------------------
------------------------------------------------------------------------

-13----12----------------------------------------------------------------
------------15---13---15---13------------------13-----------------13-----
-------------------------------14---15---15---------15---14--15----------
-------------------------------------------------------------------------
-------------------------------------------------------------------------
-------------------------------------------------------------------------

-12---12-------13-----12-------------------------------------------------
-------------------------------------------------------------------------
-------------------------------------------------------------------------
-------------------------------------------------------------------------
-------------------------------------------------------------------------
-------------------------------------------------------------------------

Back to beginning.


Last modified: 08/20/2002

VGJam Tabs Sonic the Hedgehog - "Spring Yard Zone"
Tabs database last modified Tuesday, 01-Nov-2016 19:14:53 UTC.
Copyright © 1999 - 2016 VideoGameJam.com. All rights reserved.