VGJam Tabs Sonic the Hedgehog
Sonic the Hedgehog
"Starlight Zone" - Guitar tab
Platform(s):Sega Genesis
Tabbed by:Deezer
Last modified:2002-08-20
Print it:Original file (.TXT)
Hear it:MIDI file
#----------------------------------PLEASE NOTE---------------------------------#
#This file is the author's own work and represents their interpretation of the #
#song. You may only use this file for private study, scholarship, or research. #
#------------------------------------------------------------------------------#


Sonic the Hedgehog (Sega Genesis)
"Starlight Zone"

Originally composed by: ?
------------------------------------------------------------------------------
Tabbed by: Deezer (deezer@kontek.net)
For http://www.kontek.net/vgjam/
------------------------------------------------------------------------------

Symbols used:
 h = hammer-on
 / = slide up
 * = special instructions below

Standard Tuning - (low to high) EADGBe


Guitar one:
(Another guitar doubles the first guitar an octave lower.)

----------------------------------------------17---18--17-----------------------------------
-------------20----17--------------17h18h20------------------20----18------------18--17--18-
--------------------------------------------------------------------------------------------
-17----19-----------------------------------------------------------------------------------
--------------------------------------------------------------------------------------------
--------------------------------------------------------------------------------------------

----------------------------------------------15---16--15---------------------------------
-------------17----18--------------15h17h18------------------18----17----------18--17--15-
-------19---------------------------------------------------------------------------------
------------------------------------------------------------------------------------------
------------------------------------------------------------------------------------------
------------------------------------------------------------------------------------------

----------------------------------------------17---18--17-----------------------------------
-------------20----17--------------17h18h20------------------20----18------------18--17--18-
--------------------------------------------------------------------------------------------
-17----19-----------------------------------------------------------------------------------
--------------------------------------------------------------------------------------------
--------------------------------------------------------------------------------------------

----------------------------------------------15---16--15---------------
-------------17----18--------------15h17h18------------------18----17---
-------19---------------------------------------------------------------
------------------------------------------------------------------------
------------------------------------------------------------------------
------------------------------------------------------------------------

G1|-----------------------12---------------------------------
U |--------------------------13------------------------------
I |----------------------------------------------------------
T |----------------------------------------------------------
A |----------------------------------------------------------
R |----------------------------------------------------------
  |
G2|----------------------------------12-------------------------
U |-------13-13-----13-13------------------13--------13---------
I |-12h14--------14------------------------------14------14-----
T |-------------------------------------------------------------
A |-------------------------------------------------------------
R |-------------------------------------------------------------


G1|-----------------------12-----------------------------------
U |--------------------------13--------------------------------
I |------------------------------------------------------------
T |------------------------------------------------------------
A |------------------------------------------------------------
R |------------------------------------------------------------
  |
G2|----------------------------------12--13--12--13--15--------
U |-------13-13-----13-13----------------------------------13--
I |-12h14--------14--------------------------------------------
T |------------------------------------------------------------
A |------------------------------------------------------------
R |------------------------------------------------------------


G1|-----------------------12-----------------------------------
U |--------------------------13--------------------------------
I |------------------------------------------------------------
T |------------------------------------------------------------
A |------------------------------------------------------------
R |------------------------------------------------------------
  |
G2|----------------------------------12----------------------------
U |-------13-13-----13-13------------------13----------13----------
I |-12h14--------14------------------------------14-14-----14------
T |----------------------------------------------------------------
A |----------------------------------------------------------------
R |----------------------------------------------------------------


G1|-----------------------12----------------------
U |--------------------------13-------------------
I |------------------------------------------*----
T |-----------------------------------------------
A |-----------------------------------------------
R |-----------------------------------------------
  |
G2|------------------------------12h13h15----19/20----------------
U |-------13-13-----13-13-----------------------------------------
I |-12h14--------14-----------------------------------------------
T |---------------------------------------------------------------
A |---------------------------------------------------------------
R |---------------------------------------------------------------

* Here, guitar one starts the repeat from the beginning. 


Last modified: 08/20/2002

VGJam Tabs Sonic the Hedgehog - "Starlight Zone"
Tabs database last modified Tuesday, 01-Nov-2016 19:14:53 UTC.
Copyright © 1999 - 2016 VideoGameJam.com. All rights reserved.