VGJam Tabs Commander Keen 5
Commander Keen 5
"Level select" - Guitar tab
Platform(s):Arcade
Tabbed by:Igor Lazebnik
Last modified:2000-03-21
Print it:Original file (.TXT)
Commander Keen 5 (Tab for the music During level choose)
Tabbed by Igor Laze
March 21, 2000
Igor_hill@mailcity.com


The nice Rock N' Roll 12 bar riff:


     Repeat X 4        Repeat X 2        Repeat X 2
E|-----------------|-----------------|-----------------|-----------------|-
B|-----------------|-----------------|-----------------|-----------------|-
G|-----------------|-----------------|-----------------|---------2-------|-
D|-----------------|-2---4---5---4---|-----------------|-4---6-------6---|-
A|-2---4---5---4---|---0---0---0---0-|-2---4---5---4---|---2---2---2---2-|-
E|---0---0---0---0-|-----------------|---0---0---0---0-|-----------------|-


                           Repeat X 2
E|---------------------|-----------------|---------------------------------
B|---------------------|-----------------|---------------------------------
G|---------------------|-----------------|---------------------------------
D|-2---4---5---4-------|-----------------|---------------------------------
A|---0---0---0---0-----|-2---4---5---4---|---------------------------------
E|---------------------|---0---0---0---0-|---------------------------------


The Small Solo:


E|--7--7-9-10-10-9-7--9-7--7-9-10--7-9-10-10-9-7--9-7---14-11----14-11-
B|------------------------------------------------------------12-------
G|---------------------------------------------------------------------
D|---------------------------------------------------------------------
A|---------------------------------------------------------------------
E|---------------------------------------------------------------------


E|----14-11----14-11-----12-9---------12-9----12-9----12-9-----7--7-9-10-10-
B|-12-------12-------12-------10-----------10------10------10---------------
G|--------------------------------------------------------------------------
D|--------------------------------------------------------------------------
A|--------------------------------------------------------------------------
E|--------------------------------------------------------------------------


E|-9-7-
B|-----
G|-----
D|-----
A|-----
E|-----


Enjoy!

VGJam Tabs Commander Keen 5 - "Level select"
Tabs database last modified Tuesday, 01-Nov-2016 19:14:53 UTC.
Copyright © 1999 - 2016 VideoGameJam.com. All rights reserved.