VGJam Tabs Sonic the Hedgehog 2
Sonic the Hedgehog 2
"Casino Night Zone (2-player)" - Guitar tab
Platform(s):Sega Genesis
Tabbed by:Amp
Last modified:2002-08-06
Print it:Original file (.TXT)
Hear it:MIDI file
Just play the intro, then play the rest as much as you want. Theres a cool
bass part to go with, but I've yet to tab that out...


Intro (only played once at beginning)
e |------------------------------|
B |--10---10------10-------------|
G |-------------------12--10--9--|
D |------------------------------|
A |-----------(12)---------------|
E |------------------------------|


e |--------------------------------|--------------------------------|
B |--------------------------------|--------------------------------|
G |------------------------10------|------------------------10------|
D |--10---12--12---12--10------12--|--10---12--12---12--10------12--|
A |--------------------------------|--------------------------------|
E |--------------------------------|--------------------------------|

e |-----------------------------|-----------------------------|
B |-----------------------------|-----------------------------|
G |--10---9----------9----------|--10---9----------9----------|
D |----------12--10-----10--12--|----------12--10-----10--12--|
A |-----------------------------|-----------------------------|
E |-----------------------------|-----------------------------|

e |-----------------------------|-----------------------------|
B |--10-------------------------|--10-------------------------|
G |-------12--10--9--12--9--10--|-------12--10--9--12--9--10--|
D |-----------------------------|-----------------------------|
A |-----------------------------|-----------------------------|
E |-----------------------------|-----------------------------|

e |-------------------------------------------|--------------------------------------|
B |--8----------------------------------------|--8-----------------------------------|
G |-----9------10----9------------------------|-----9------10----9----7--9--7--10----|
D |--------10-------------12--12--10--12------|--------10----------------------------|
A |---------------------------------------12--|--------------------------------------|
E |-------------------------------------------|--------------------------------------|

e |-------------------------------------------|--------------------------------------|
B |--8----------------------------------------|--8-----------------------------------|
G |-----9------10----9------------------------|-----9------10----9----7--10--9--7----|
D |--------10-------------12--12--10--12------|--------10----------------------------|
A |---------------------------------------12--|--------------------------------------|
E |-------------------------------------------|--------------------------------------|


That's all there is to it. Any corrections or comments, email me.

-Amputee (Supernaut@popmail.com)

VGJam Tabs Sonic the Hedgehog 2 - "Casino Night Zone (2-player)"
Tabs database last modified Tuesday, 01-Nov-2016 19:14:53 UTC.
Copyright © 1999 - 2016 VideoGameJam.com. All rights reserved.