VGJam Tabs Sonic the Hedgehog 2
Sonic the Hedgehog 2
"Chemical Plant" - Bass tab
Platform(s):Sega Genesis
Tabbed by:One Cent Wise
Last modified:2001-12-19
Print it:Original file (.TXT)
Hear it:MIDI file
Sega Genesis  Sonic the Hedgehog 2 - Chemical Plant - BASS RiFF
original composer : ???

> = multiple times
h = hammer on

Intro:

g --------------------------
d --------------------------
a ---9h6--7--7--8--8---
E --------------------------

Part 1:

g --------------------------------
d --------------------------------
a --9>---9--6--7--8----------
E -------------------------------

Part 2:

g ---------------------------------
d --------------------------------
a ---9>--7>--6>--------------
E --------------------------------

then go back to Part 1 and play over. This is the main verse part

Chorus/ Interlude Bit

g ------11--9--11-----------11--9--11
d ------------------------------------------
a --9---------------9--9---------------
E ------------------------------------------

    Repeat as needed then end with the intro part

    I suggest listening to the song to get the timing and all that down.

TaBBeD bY: One Cent Wise
VGJam Tabs Sonic the Hedgehog 2 - "Chemical Plant"
Tabs database last modified Tuesday, 01-Nov-2016 19:14:53 UTC.
Copyright © 1999 - 2016 VideoGameJam.com. All rights reserved.