VGJam Tabs Sonic the Hedgehog 2
Sonic the Hedgehog 2
"Final Boss" - Guitar tab
Platform(s):Sega Genesis
Tabbed by:king_dedede
Last modified:2001-12-07
Print it:Original file (.TXT)
Hear it:MIDI file
Final Battle With Robotnik at the Death Egg Theme:
(Sonic the Hedgehog 2, for Sega Genisis)

intro:
e--5-000-5-000-5-000-5-0--(repeat)

Part One:
e-------------------------4h5-0---4h5-0---
B-----1--3--0-1----0----------------------
G--2-------------2----0--2----------------(repeat)

Bridge:
e------------------------------------------------------------
B--1-0-1--1-0-1--3-3--3-1-3--3-1-3--5-5--5-3-5--5-3-5--5-5---

e--5--4--4-4-4-4-4-4--
B--5--5--5-5-5-5-5-5--

Part Two:
B--------------0------0-1-1--1--0-1-3-----1-3-1---0-1---
G--2-2--2--1-2---2--2------------------2--------2-------

B--3-1-0--0-1-3--
G----------------(repeat, but the second time, omit the numbers in 
parenthases 
in the last line: [B--(3-1)-0--0-1-3--])

Then begin again at the intro.


That's all...e-mail me any questions, comments, at king_dedede@hotmail.com

VGJam Tabs Sonic the Hedgehog 2 - "Final Boss"
Tabs database last modified Thursday, 17-Apr-2014 20:21:29 CDT.
Copyright © 1999 - 2014 VideoGameJam.com. All rights reserved.