VGJam Tabs Sonic the Hedgehog 2
Sonic the Hedgehog 2
"Hidden Palace" - Guitar tab
Platform(s):Sega Genesis
Tabbed by:CharlesEmerald7
Last modified:2001-10-26
Print it:Original file (.TXT)
Hear it:MIDI file
system: Sega Genesis
game: Sonic 2
Tab:Hidden Palace

--------------------------------Please Note---------------------------------
This file may only be used for the private study, or reshearch. 
----------------------------------------------------------------------------

Sonic the Hedgehog 2(beta release)
"Hidden Palace"

----------------------------------------------------------------------------
Tabbed by CharlesEmerald7
Any comments, send to charlesemerald7@yahoo.com
----------------------------------------------------------------------------

Standard tuning EADGBE

----------- (Play only as introduction)
-----------
-------5---
--3--------
-----------
-----------

Moderaltly Slow(Andate)
[------------------------------------------------------------]
[-------------------------------4----3-----------------------]
[-----3--5--------3----5------------------5----3----5--------]
[--6---------------------------------------------------------]
[------------------------------------------------------------]
[------------------------------------------------------------]

[------------------------------------------------------------]
[-------------------------------4----6----3------------------]
[-----3--5--------3----5-----------------------3----5--------]
[--6---------------------------------------------------------]
[------------------------------------------------------------]
[------------------------------------------------------------]
                                                      
       
First time 
repeat from top.
Second time go to Coda
                                                      
  To Coda
[----------------------------------------------------------------]
[-------------------4-------------------------3-----4-----3------]
[-----3-------3---------5----3---------5-------------------------]
[--6-------6----------------------6------------------------------]
[----------------------------------------------------------------]
[----------------------------------------------------------------]

Coda
[--4------6----4----3---------------]
[--------------------------5--------] 
[-----------------------------------]
[-----------------------------------] 
[-----------------------------------]
[-----------------------------------]


The "Hidden Palace" can be found on "Sonic & Knuckles
Collection" screen saver. Just choose "Sonic 2" at the
set-up selection.

Enjoy!




=====
CharlesEmerald7@yahoo.com

VGJam Tabs Sonic the Hedgehog 2 - "Hidden Palace"
Tabs database last modified Tuesday, 01-Nov-2016 19:14:53 UTC.
Copyright © 1999 - 2016 VideoGameJam.com. All rights reserved.