VGJam Tabs Sonic the Hedgehog 2
Sonic the Hedgehog 2
"Hidden Palace" - Guitar tab
Platform(s):Sega Genesis
Tabbed by:Amp
Last modified:2002-11-10
Print it:Original file (.TXT)
Hear it:MIDI file
Sonic the Hedgehog 2
"Hidden Palace Zone"
Sega Genesis
Music by: Sonic Team
Tabbed by: amp -supernaut@popmail.com


This level is ONLY playable on the beta version of sonic 2. To download a emulated
version, go to the SSRG (http://ssrg.emulationzone.org/betas/s2beta/). I am not 
affiliated with the site, but its worth a look to any sonic fan. 


Play this song pretty slow. Play it through twice, then go to the coda.


e |---------------------------------------------|
B |---------------------------------------------|
G |------0--2------0--2------5--4--2--0--2------|
D |---3-----------------------------------------|
A |---------------------------------------------|
E |---------------------------------------------|

e |---------------------------------------------|
B |---------------------------------------------|
G |------0--2------0--2------5--7--4--0--2------|
D |---3-----------------------------------------|
A |---------------------------------------------|
E |---------------------------------------------|

e |----------------------------------------------------------------------|
B |----------------------------------------------------------------------|
G |----------------------5--2------0---------2------4------5------4------|
D |--3--5------3--5-----------------------3------------------------------|
A |----------------------------------------------------------------------|
E |----------------------------------------------------------------------|


Coda
e |-----------------------------------|
B |--6------6--6--8--6--5------2------|
G |-----------------------------------|
D |-----------------------------------|
A |-----------------------------------|
E |-----------------------------------|


Author's note - This was written an octave (12 frets) lower than how it sounds
on the song. To play it the way you hear it, just add 12 to every note on here.
VGJam Tabs Sonic the Hedgehog 2 - "Hidden Palace"
Tabs database last modified Tuesday, 01-Nov-2016 19:14:53 UTC.
Copyright © 1999 - 2016 VideoGameJam.com. All rights reserved.