VGJam Tabs Sonic the Hedgehog 2
Sonic the Hedgehog 2
"Metropolis Zone" - Guitar tab
Platform(s):Sega Genesis
Tabbed by:Cryptopsy911
Last modified:2002-07-20
Print it:Original file (.TXT)
Hear it:MIDI file
Tabbed By: Cryptopsy911
Song: Sonic The Hedgehog 2 - Metropolis Zone
System: Sega Genesis


Notation Legend

~= Vibrato
B= Bend to note
sb= slow bend
rb= Release bend
h= hammer on
p= pull off
/= slide up to note
\= slide down to note
x= palm mute


This is the full version of the song...It has alot of things going on though
so bare with me =p  I tried to keep things as organized and(sorta) easy to
follow

Well...here it goes


Turn Table thing - Rub right hand above pickups
----------------------|
----------------------|
----------------------|
-x----x--------x----x-|
-x----x--------x----x-|
-x----x--------x----x-|

---------|
---------|
-4b5rb4--| x8
-4b5rb4--|
---------| *Refer to notation legend
---------|

Rythem
----------------------------8--8-------|
---------------8---10--10---6--6---8---|
---------------9----7---7----------5---|
---------------------------------------|
-----0--2--3---------------------------|
-3-------------------------------------|

----------------------------8--8----8--|
---------------8--10--10----6--6----5--|
---------------9---7---7---------------|
---------------------------------------|
----0--2--3----------------------------|
-3-------------------------------------|


Lead stuff (Played w/ rythem)
----------------------------------------------------------|
------------5~~---5------------5--6--5--8~----5-----------|
-4sb5~~--------------7--5~~----------------------5~~------|
----------------------------------------------------------|
----------------------------------------------------------|
----------------------------------------------------------|

------------------|
-/5~~--5----------|
----------7--5~~--|
------------------|
------------------|
------------------|

Quick Lick
-22--20--19------|
-------------22--|
-----------------|
-----------------| x8
-----------------|
-----------------|

This rythem is played while the "Quick Lick" is being played
------------------------------------------------------|
------------------------------------------------------|
---------------------------7--7--7--7-----------------|
-7--7--7--7--7--7--7--7----7--7--7--7----7--7--7--7---|
-7--7--7--7--7--7--7--7----5--5--5--5----7--7--7--7---|
-5--5--5--5--5--5--5--5------------------5--5--5--5---|
 x  x  x  x  x  x  x  x    x  x  x  x    x  x  x  x


ok...Fig. 1  and Fig. 2  are played at the same time...

Fig. 1
---------------------------------------------------|
---------------------------------------------------|
-5--5-------------------4---5--5-------------------|
-5--5-------------------4---5--5-------------------|
-3--3----(Lead Fill)----2---3--3-----(Lead Fill)---|
---------------------------------------------------|

Fig. 2
-20--20----(Lead Fill)----19--10--20----(Lead Fill)-|
----------------------------------------------------|
----------------------------------------------------|
----------------------------------------------------|
----------------------------------------------------|
----------------------------------------------------|

What the heck is the lead fill?!?

This is my friend!
-------------------------------|
-------1--4~~---1-----1~~------|
-1--3--------------3-----------|
-------------------------------|
-------------------------------|
-------------------------------|


Quick Lick
-22--20--19------|
-------------22--|
-----------------|
-----------------| x8
-----------------|
-----------------|

Played w/ quick lick
------------------------------------------------------|
------------------------------------------------------|
---------------------------7--7--7--7-----------------|
-7--7--7--7--7--7--7--7----7--7--7--7----7--7--7--7---|
-7--7--7--7--7--7--7--7----5--5--5--5----7--7--7--7---|
-5--5--5--5--5--5--5--5------------------5--5--5--5---|
 x  x  x  x  x  x  x  x    x  x  x  x    x  x  x  x

Fig. 1
------------------------|
------------------------|
-5--5-------------------|
-5--5-------------------|
-3--3----(Lead Fill)----|
------------------------|

Fig. 2
-20--20----(Lead Fill)----|
--------------------------|
--------------------------|
--------------------------|
--------------------------|
--------------------------|

Play while slowing depressing whammy bar
-15p12--15p12--15p12--15p12--15p12--15p12--15p12--15p12--|
---------------------------------------------------------|
---------------------------------------------------------|
---------------------------------------------------------|
---------------------------------------------------------|
---------------------------------------------------------|

Repeat everything above once again


Well I hope this isn't too confusing! I'll be doin some more
tabs, prolly not sonic though! lol =p

Have fun!!

VGJam Tabs Sonic the Hedgehog 2 - "Metropolis Zone"
Tabs database last modified Tuesday, 01-Nov-2016 19:14:53 UTC.
Copyright © 1999 - 2016 VideoGameJam.com. All rights reserved.