VGJam Tabs Sonic the Hedgehog 2
Sonic the Hedgehog 2
"Oil Ocean Zone" - Guitar tab
Platform(s):Sega Genesis
Tabbed by:Amp
Last modified:2002-08-05
Print it:Original file (.TXT)
Hear it:MIDI file
Sonic The Hedgehog 2 - "Oil Ocean Zone"
Sega Genesis
Tabbed by - Supernaut@popmail.com


Here's another masterpiece from Sonic Team. It plays kind of fast in some parts, 
and slower in others. Just listen to it, and you can pick it out as you go.


Intro
Only played at the very beginning once.

e |---------------------------------------------------------------------|
B |---------------------------------------------------------------------|
G |---------------------------------10----------------------------------|
D |----------------10--12-------13-----13--12--13--12--10--9h10p--------|
A |--10----12--13------------------------------------------------11-10--|
E |---------------------------------------------------------------------|




"Verse"
The last note on the first line (A10) carries over to the next line seamlessly.

e |----------------------------------------------------------------------------|
B |----------------------------------------------------------------------------|
G |--------------------------------10------------------------------------------|
D |-----------------10--12-----13------13--12----13--12--10--9---10--9---------|
A |--10-----12--13------------------------------------------------------11--10-|
E |----------------------------------------------------------------------------|

|------------------------------------------------------------------------------|
|------------------------------------------------------------------------------|
|-------------------------10------10----12--10---------------------------------|
|----------10--12-----13------13----------------13--12--13--12--10--9----------|
|--12--13---------------------------------------------------------------11-10--|
|------------------------------------------------------------------------------|




"Prechorus"
Repeat 4x, slightly different timing. I know its not supposed to be a slide, but if you
do it right, it sounds just as good and its easier.

e |-----------------------|
B |-----------------------|
G |-----------------------|
D |--5/9--10--9-----------|   
A |--------------11-10----|
E |-----------------------|




"Chorus"
Theres a fast arpeggio after it, that I've yet to figure out.

E |------------------------------------|-------------------------------------|
B |------------------------------------|-------------------------------------|
G |------------------12----12--11------|------------------12----12--10--14---|
D |--10--12--13--10----------------12--|--10--12--13--10---------------------|
A |------------------------------------|-------------------------------------|
E |------------------------------------|-------------------------------------|



Go back to the verse, repeat as necessary. If you want to make any corrections, 
comments, etc. email me.

- Supernaut@popmail.com

VGJam Tabs Sonic the Hedgehog 2 - "Oil Ocean Zone"
Tabs database last modified Tuesday, 01-Nov-2016 19:14:53 UTC.
Copyright © 1999 - 2016 VideoGameJam.com. All rights reserved.