VGJam Tabs Cosmo's Adventure
Cosmo's Adventure
"Main theme" - Guitar tab
Platform(s):Arcade
Tabbed by:Igor Lazebnik
Last modified:2000-03-21
Print it:Original file (.TXT)
Cosmo (Tab of cosmo theme)
Tabbed by Igor Lazebnik
March 21, 2000
Igor_hill@mailcity.com


Legend
------
b  = bend
r  = bend release
~  = Hold


Here is the main riff:


E|---------------------|-------------------|---------------------|-
B|---------------------|-----6-6-5---6-6-5-|---------------------|-
G|-----5-5-4---5-5-5-4-|-5-5-5-5-5---5-5-5-|-----5-5-4---5-5-5-4-|-
D|-5-5-5-5-5---5-5-5-5-|-5-5-5-5-5---5-5-5-|-5-5-5-5-5---5-5-5-5-|-
A|-5-5-5-5-5---5-5-5-5-|-3-3-3-3-3-3-------|-5-5-5-5-5---5-5-5-5-|-
E|-3-3-3-3-3-3---3-3-3-|-------------------|-3-3-3-3-3-3---3-3-3-|-


E|-----------|-----------|-------------------------|--------------
B|-----8-8-7-|-----6-6-5-|-------------------------|--------------
G|-7-7-7-7-7-|-5-5-5-5-5-|---------5-5-4---5-5-5-4-|--------------
D|-7-7-7-7-7-|-5-5-5-5-5-|-----5-5-5-5-5---5-5-5-5-|--------------
A|-5-5-------|-3-3-------|-----5-5-5-5-5---5-5-5-5-|--------------
E|-----------|-----------|-----3-3-3-3-3-3---3-3-3-|--------------


The solo is easy... all you have to do is just improvise on
G key, blues style.  Just for the heck of it, I tabbed the 
beginning of the solo for you...


E|--------------------------------------------
B|----------------6---------------------------
G|---3-5b6~~--5b6---5b6r5-3-5b6r5-3-3b~-------
D|-5------------------------------------5-4-3-
A|--------------------------------------------
E|--------------------------------------------


Keep on going on your own...
Later.


And most of all, Enjoy!

VGJam Tabs Cosmo's Adventure - "Main theme"
Tabs database last modified Saturday, 12-Apr-2014 00:15:37 CDT.
Copyright © 1999 - 2014 VideoGameJam.com. All rights reserved.