VGJam Tabs Sonic the Hedgehog 2
Sonic the Hedgehog 2
"Super Sonic" - Guitar tab
Platform(s):Sega Genesis
Tabbed by:zaneDarklight
Last modified:2001-07-04
Print it:Original file (.TXT)
Super Sonic [Sonic 2 from SEGA Megadrive]
by: zaneDarklight @ Wan Zafran
mail: wzafran@yahoo.com

e----------------------------------------------------------
B----------------------------------------------------------
G----------------------------------------------------------
D----------------------------------------------------------
A----------------------------------------------------------
E-8--9--10--9--10--11--10--11--12--11--12--13--------------
*slowly rise the frets for the beginning momentum, have a
bass accompany you if possible.*


e----------------------------------------------------------
B----------------------------------------------------------
G--------------8-------------------------------------------
D-8-8-8-8-9-11---11-11-11-8-9------------------------------
A-----------------------------11---------------------------
E----------------------------------------------------------
*Repeat this line twice.*


e----8---------------8-------8-----------------------------
B------11-10-11-8h10-----------11-10h11--------------------
G-10----------------------10-------------------------------
D----------------------------------------------------------
A----------------------------------------------------------
E----------------------------------------------------------
*You have to listen to the song for this part, it's 
pretty fast. My tabbing 
should be somewhat accurate, if
not, improvise!*


   C       F       G
e----------------------------------------------------------
B----------------------------------------------------------
G----------------------------------------------------------
D----------------------------------------------------------
A----------------------------------------------------------
E--8------12------15~--------------------------------------
*As you play the individual fret, have a second guitar
strum the chords upwards! (from the highest to the lowest
string)*

 2001 Wan Zafran. Sonic the Hedgehog is a property of 
SEGA.

VGJam Tabs Sonic the Hedgehog 2 - "Super Sonic"
Tabs database last modified Tuesday, 01-Nov-2016 19:14:53 UTC.
Copyright © 1999 - 2016 VideoGameJam.com. All rights reserved.