VGJam Tabs Sonic the Hedgehog 3
Sonic the Hedgehog 3
"Ice Cap Zone: Act I" - Guitar tab
Platform(s):Sega Genesis
Tabbed by:Deezer
Last modified:1999-10-18
Print it:Original file (.TXT)
Hear it:MIDI file
#----------------------------------PLEASE NOTE---------------------------------#
#This file is the author's own work and represents their interpretation of the #
#song. You may only use this file for private study, scholarship, or research. #
#------------------------------------------------------------------------------#

Sonic the Hedgehog 3 (Sega Genesis)
"Ice Cap Zone"

Originally composed by: ?
------------------------------------------------------------------------------
Tabbed by: Deezer (deezer@usa.net)
For http://www.kontek.net/vgjam/
------------------------------------------------------------------------------


Standard tuning - EADGBe


  Cm        N.C.                Ab
--15----------------------------13--
--16------------------13--------15--
--17--------15--------13--------15--
------------------------------------
------------------------------------
------------------------------------


  Cm        N.C.      Ab
--15------------------13--
--16------------------15--
--17--------15--------15--
--------------------------
--------------------------
--------------------------


--------20----18--------------------------
------------------------15---16---18------
--17----------------------------------15--
------------------------------------------
------------------------------------------
------------------------------------------


--------20----18------------
------------------------15--
--17------------------------
----------------------------
----------------------------
----------------------------

Repeat from beginning.


Last revised: 10/18/99

VGJam Tabs Sonic the Hedgehog 3 - "Ice Cap Zone: Act I"
Tabs database last modified Tuesday, 01-Nov-2016 19:14:53 UTC.
Copyright © 1999 - 2016 VideoGameJam.com. All rights reserved.