VGJam Tabs Streets of Rage
Streets of Rage
"The Street of Rage" - Guitar tab
Platform(s):Sega Genesis
Composed by:Yuzo Koshiro
Soundtrack:Bare Knuckle (track 01)
Tabbed by:Eli Krause
Last modified:2002-02-25
Print it:Original file (.TXT)
Hear it:MIDI file
Date: Mon, 25 Feb 2002
System: Sega Genesis
Title: Streets of Rage Title Song Guitar Tab
Transcribed by: Eli Krause
Email: ekrause@planet-save.com

part 1
---------------3-------------------------|------------------5------3-1-0---0--
--0-3-5-3-------------1-0-1--------------|--5-3--------------------------1----
-----------------------------------------|-----------2------------------------
-----------------------------------------|------------------------------------
-----------------------------------------|------------------------------------
-----------------------------------------|------------------------------------

part 2
-5--1-----3--5-1-------------------------|-5-1-----3-5-1----------------------
-----1-3--------1-0----------------------|-----1-3-------1-0------------------
-----------------------------------------|------------------------------------
-----------------------------------------|------------------------------------
-----------------------------------------|------------------------------------
-----------------------------------------|------------------------------------

VGJam Tabs Streets of Rage - "The Street of Rage"
Tabs database last modified Tuesday, 01-Nov-2016 19:14:53 UTC.
Copyright © 1999 - 2016 VideoGameJam.com. All rights reserved.