VGJam Tabs Streets of Rage 2
Streets of Rage 2
"Ending" - Guitar tab
Platform(s):Sega Genesis
Composed by:Yuzo Koshiro
Tabbed by:smoo
Last modified:1999-08-09
Print it:Original file (.TXT)
Hear it:MIDI file
#----------------------------------PLEASE NOTE--------------------------------#
#This file is the author's own work and represents their interpretation of the#
#song. You may only use this file for private study, scholarship, or research.#
#-----------------------------------------------------------------------------#
#-- File created with Instab - http://www.pconline.com/~smcarey/instab.html --#
#-----------------------------------------------------------------------------#

Title: streets of rage 2 ending theme
Transcribed by: smoo (http://www.cjas.org/~smoo/tabs.htm)

intro
-|-------------13-15-|-17h18-17-------------------------|---------------------
-|-10-11-13-13-------|----------18-18h20-18-18----------|---------------------
-|-------------------|-------------------------17h19-17-|---------------------
-|-------------------|----------------------------------|---------------------
-|-------------------|----------------------------------|---------------------
-|-------------------|----------------------------------|---------------------
                                                                              

-|-17-15-13-13-17-20-17-15-|-18-18-18-17-15-13-13-15-15-|---------------------
-|-------------------------|----------------------------|---------------------
-|-------------------------|----------------------------|---------------------
-|-------------------------|----------------------------|---------------------
-|-------------------------|----------------------------|---------------------
-|-------------------------|----------------------------|---------------------
                                                                              
looped melody
part a
  F           G    F                   G
-|--------------|-5h6-5------------------|------------------------------------
-|----------6-8-|-------6--6h8-6-6-------|------------------------------------
-|-2-3-5--5-----|------------------5h7-5-|------------------------------------
-|--------------|------------------------|------------------------------------
-|--------------|------------------------|------------------------------------
-|--------------|------------------------|------------------------------------
                                                                              
   F         G      F                 G
-|-5-3-----5-8-5-3-|-6-6-6-5-3------3-3-|-------------------------------------
-|-----6-6---------|-----------6-6------|-------------------------------------
-|-----------------|--------------------|-------------------------------------
-|-----------------|--------------------|-------------------------------------
-|-----------------|--------------------|-------------------------------------
-|-----------------|--------------------|-------------------------------------

part b                                                                              
  A             E        G             D
-|-8-8-8-6-6-4-|-11-8-6-|-9-9-9-8-6-4-|-4-6h8-6-|-----------------------------
-|-------------|--------|-------------|---------|-----------------------------
-|-------------|--------|-------------|---------|-----------------------------
-|-------------|--------|-------------|---------|-----------------------------
-|-------------|--------|-------------|---------|-----------------------------
-|-------------|--------|-------------|---------|-----------------------------
                                     
  A             E          G             D
-|-8-8-8-6-6-4-|-11-13-11-|-9-9-9-8-6-4-|-4---6-|-----------------------------
-|-------------|----------|-------------|-------|-----------------------------
-|-------------|----------|-------------|-------|-----------------------------
-|-------------|----------|-------------|-------|-----------------------------
-|-------------|----------|-------------|-------|-----------------------------
-|-------------|----------|-------------|-------|-----------------------------
                                                                              

rhythm part plays this - cues above the melody
part a
    F                     G
-e|-1-1--1-1--1-1--1-1--|-3-3--3-3--3-3--3-3-------------
-B|----1----1----1----1-|----1----1----1----1------------

part b
strum chords
   A  E  G  D
-|-0--0--3--2-----
-|-2--0--0--3-----
-|-2--1--0--2-----
-|-2--2--0--0-----
-|-0--2--2--0-----
-|-0--0--3--------                                                                              



VGJam Tabs Streets of Rage 2 - "Ending"
Tabs database last modified Tuesday, 01-Nov-2016 19:14:53 UTC.
Copyright © 1999 - 2016 VideoGameJam.com. All rights reserved.