VGJam Tabs Target Earth
Target Earth
"First Round" - Guitar tab
Platform(s):Sega Genesis
Tabbed by:jk.huovinen
Last modified:2000-03-24
Print it:Original file (.TXT)
Target Earth
First Round




g|--------------------------------------------|
D|--------------------------------------------|
A|---------4---4---5-6-------4--6-----4-----4-|
E|-4-4-7-----7---7-----4-4-7-------2-----1----|


At the end of second time guitar comes in
e|---------------------------------|
b|---------------------------------|
g|----8-10-11-10-8-----------------|
D|-11-------------11-10-8----------|
A|------------------------12-11-9--|
E|---------------------------------|


I cheated; I slowed the wav down to hear it.
I can't get the bass.
But here are the chords for the rising part
e|-------------------------|
b|-------------------------|
g|-1---3---4---6----8----4-|
D|-2---4---5---7----9----5-|
A|-2---4---5---7----9----5-|
E|-0---2---3---5----7----3-|






e|----------------------------|
h|----------------------------|
g|-8-10-10^11---8-6---8-------|
D|-.-.--------------------8^9-|
A|----------------------------|
E|----------------------------|


e|--------------------------------------------|
h|--------------------------------------------|
g|-8-10-10^11---6---8---------6-7-8-----------|
D|-.-.------------------8^9-9-------9---6-----|
A|--------------------------------------------|
E|--------------------------------------------|


e|----------------------------|
h|----------------------------|
g|-8-10-10^11---8-6---8-------|
D|-.-.--------------------8^9-|
A|----------------------------|
E|----------------------------|


e|----------------------------------------------|
h|--------------------13--14--13----------------|
g|-8-10-10^11---8-6---------------11------------|
D|-.-.------------------------------------------|
A|----------------------------------------------|
E|----------------------------------------------|


e|-----------------------------------------------------------|
b|-----------------------------------------------------------|
g|-11-8-10-11---8-10-11----8-10-11-8-10-11-10-6-8-10-568-----|
D|------------------------------------------------------6----|
A|-----------------------------------------------------------|
E|-----------------------------------------------------------|


e|----------------------------------------------------------------------|
b|--------------------------------------------------------------9-------|
g|-8-10-11-8-10-11---8-10-11----8-10-11-8-10-11-10-6-8-10---6-7---------|
D|-.--.---------------------------------------------------9-------------|
A|----------------------------------------------------------------------|
E|----------------------------------------------------------------------|


e|--------------------------------------------|
b|-9-------12---11-12-11-9-11-----------9-11--|
g|-------9------------------------------------|
D|-----9--------------------------------------|
A|--------------------------------------------|
E|--------------------------------------------|


e|--------------------------------------------|
b|-12-------15---14-15-14-12-15---------------|
g|-------12-----------------------------------|
D|----12--------------------------------------|
A|--------------------------------------------|
E|--------------------------------------------|


e|--------------------------------------------|
b|-16---------19-17---15-14-12----------------|
g|---------16---------------------------------|
D|------16------------------------------------|
A|--------------------------------------------|
E|--------------------------------------------|


e|---------------------------------------------------|
b|---------------------------------------------------|
g|-6^8-9-6---------------8-10-11-10-8----------------|
D|------------5^6---8-11--------------11-9-8---------|
A|-------------------------------------------12-11-9-|
E|---------------------------------------------------|


e|--------------------------------------------|
b|--------------------------------------------|
g|--------------------------------------------|
D|--------------------------------------------|
A|--------------------------------------------|
E|--------------------------------------------|




any corrections
jk.huovinen@pp.phnet.fi

VGJam Tabs Target Earth - "First Round"
Tabs database last modified Tuesday, 01-Nov-2016 19:14:53 UTC.
Copyright © 1999 - 2016 VideoGameJam.com. All rights reserved.