VGJam Tabs Target Earth
Target Earth
"Theme" - Guitar tab
Platform(s):Sega Genesis
Tabbed by:jk.huovinen
Last modified:2000-03-24
Print it:Original file (.TXT)
Theme from target earth
Intro
Time signature 12:8


|---------------------------------------------------------------|
|---------------------------------------------------------------|
|-8-8---8-8---8---8-8---8-8---8---1111--1111--11--1111--1111--11|
|---------------------------------------------------------------|
|-6-6---6-6---6---6-6---6-6---6---9-9---9-9---9---9-9---9-9---9-|
|---------------------------------------------------------------|
|                                                          
|---------------------------------------------------------------|
|---------------------------------------------------------------|
|---------------8/20-------------------------21/23--------------|
|---------------------------------------------------------------|
|---------------6/18--------------------------9/21--------------|
|---------------------------------------------------------------|

|-------------------------------------|
|-------------------------------------|
|-------------------------------------|
|-8-8---8-7-7---7---6-6---6-----------|
|-6-6---6-5-5---5---4-4---4-8-8---8---|
|---------------------------6-6---6---|

I Don't know... anyway the chord is F5(sus2) use a delay
|-------------------------------------------------------------|
|-------------------18--------18---------------------18-------|
|-15-17-15-17----17------17--------17-15-17-15-15-17-----17---|
|-------------15----------------------------------------------|
|-------------------------------------------------------------|
|-------------------------------------------------------------|

|---------------------------|
|---------------------------|
|-10--9---8---7---6---5-----|
|-11--10--9---8---7---6-----|
|-8---7---6---5---4---3-----|
|(9---8---7---6---5---4)----|
| Might sound better without the low ones.
|---------------------------|
|---------------------6-----|
|-4-------------------------|
|---------------------------|

|-------10-----------9-----------8-----------7-----|
|-5-8-5----5-8-5-8-5---5-8-5-8-5---5-8-5-8-5---5-8-|
|--------------------------------------------------|
|--------------------------------------------------|


|-------------------|
|-------------------|
|-10-12-----10-12---|
|-------12-------12-|
|-------------------|
|-------------------|
|
|-10-12-------------|
|-------12-10-12----|
|----------------10-|
|-------------------|

 Gtr 1
|------------------------------------------------------------|
|----------15---------------------13-------12----------------|
|----12-14------------------12-14--.-------------------------|
|-12---------------------12----------------------------------|
|------------------------------------------------------------|
|------------------------------------------------------------|
| Gtr2                                                           
|------------------------------------------------------------|
|-------------------15---------------------------12----------|
|-------------12-14------------------------14-------12-------|
|-10-12----12---------------------12----------12-------12-13-|
|-------13---------------------------------------------------|
|------------------------------------------------------------|


 Gtr1
|--------------------------------------------------------------13----|
|----------15-------15---13-11-------11---11-11-10-11--13------------|
|----12-15---------------------12------------------------------------|
|-12-----------------------------------------------------------------|
|--------------------------------------------------------------------|
|--------------------------------------------------------------------|
|Gtr2                                                             
|----------<---------------------------------------------------13----|
|----------15-------13-11-------<---------------------11-10-11-------|
|-12----------------------12----12--(12)-----------------------------|
|----12-13-----------------------------------------------------------|
|--------------------------------------------------------------------|
|--------------------------------------------------------------------|

  gtr1
|------------------------------------------------------------|
|----------15---------------------13-------12----------------|
|----12-14------------------12-14--.-------------------------|
|-12---------------------12----------------------------------|
|------------------------------------------------------------|
|------------------------------------------------------------|
| Gtr2                                                           
|------------------------------------------------------------|
|-------------------15---------------------13-------12-------|
|-------------12-14------------------12-14----12-14----12----|
|----------12---------------------12----------------------12-|
|------------------------------------------------------------|
|------------------------------------------------------------|

 Gtr1       
|--------------------------------------------------------------------|
|-------11-15-------15---13-11-------11---11-11-10----11--15---------|
|----12------------------------12------------------11----------------|
|-13-----------------------------------------------------------------|
|--------------------------------------------------------------------|
|--------------------------------------------------------------------|
|Gtr2                                                             
|--------------------------------------------------------------------|
|-------------------13-11-----------------------------11-10----15----|
|-------------12-15-------12--------(12)--------------------11-------|
|-13-15-12-13--------------------------------------------------------|
|--------------------------------------------------------------------|
|--------------------------------------------------------------------|

|-10--10-10-10-11--------13---13-13-13-15--------|
|-11--11-11-11-12---12---14---14-14-14-16---16---|
|-10--10-10-10-11---11---13---13-13-13-15---15---|
|-------------------13----------------------17---|
|------------------------------------------------|
|------------------------------------------------|
| Bells on the major chord thingie
|-------10------------11--------13-------15------|
|----11------------12--------14-------16---------|
|-10------x4----11--x4----13----x4-15-----x4-----|
|------------------------------------------------|
|------------------------------------------------|
|------------------------------------------------|

|-10--10-10-10-11--------13---13-13-13-15---17---|
|-11--11-11-11-12---12---14---14-14-14-16---18---|
|-10--10-10-10-11---11---13---13-13-13-15---17---|
|-------------------13---------------------------|
|------------------------------------------------|
|------------------------------------------------|

 Bells the end on the second time
|-------15----15-----------------------------|
|----16------------------------------16-16---|
|-15-------15---------12----12-14------------|
|------------------------13-------15---------|
|--------------------------------------------|
|--------------------------------------------|

 Basses
|-------10-----------9-----------7-----------5------|
|-5-8-5----5-8-5-8-5---5-8-5-8-5---5-8-5-8-5----5-8-|
|---------------------------------------------------|
|---------------------------------------------------|

 first ending It's close enough
|-------5----------3-----------7-----------8-----|
|---5-------5---5------5---8-------8---6-------6-|
|-6---6---6---6---6--6---6---6---6---6---6---6---|
|------------------------------------------------|

 second ending
|-------5-----------3-----------7-----------7-----|
|---5-------5---5-------5---8-------8---8-------8-|
|-6---6---6---6---6---6---6---6---6---6---6---6---|
|-------------------------------------------------|
"Major chord" part                                    

  1 & & 2 & & 3 & & 4 & & 1 & & 2 & & 3 & & 4 & &
  |-----|-----|-----|-----|-----|-----|-----|-----|
|-------------------------------------------------|
|-------------------------------------------------|
|---6---6---6---6---6---6---6---6---6---6---6---6-|
|-------------------------------------------------|


|----------------------------------------------------------|
|----------------------------------------------------------|
|----------------------------------------------------------|
|----------------------------------------------------------|
|----------------------------------------------------------|
|----------------------------------------------------------|


any corrections
jk.huovinen@pp.phnet.fi

VGJam Tabs Target Earth - "Theme"
Tabs database last modified Tuesday, 01-Nov-2016 19:14:53 UTC.
Copyright © 1999 - 2016 VideoGameJam.com. All rights reserved.