VGJam Tabs ToeJam & Earl
ToeJam & Earl
"Theme" - Guitar, Bass tab
Platform(s):Sega Genesis
Tabbed by:Deezer
Last modified:2002-10-18
Print it:Original file (.TXT)
Hear it:MIDI file
#----------------------------------PLEASE NOTE---------------------------------#
#This file is the author's own work and represents their interpretation of the #
#song. You may only use this file for private study, scholarship, or research. #
#------------------------------------------------------------------------------#


ToeJam & Earl (Sega Genesis)
"Theme"

Originally composed by: ?
------------------------------------------------------------------------------
Tabbed by: Deezer (deezer@kontek.net)
For http://www.kontek.net/vgjam/
------------------------------------------------------------------------------

Inspired by a tab from Justin Bost (Herzeleid_Engel2000 AT yahoo DOT com)

Standard Tuning:
 Guitar - (low to high) EADGBe
 Bass   - (low to high) EADG

Guitar is lined up with bass as best I could.


G|---------------------------------------------------------------------------
U|---------------------------------------------------------------------------
I|---------------------------------------------------------------------------
T|---------------------------------------------------------------------------
A|------------------------------------3--2-3----3--2-3--2-3-2-3--5-----------
R|---------------------------------------------------------------------------
 |
B|------12---10-----10--9-10-12-----------------------------------------12---
A|---------------------------------------------------------------------------
S|-10------------------------------10-------10--10-----------------10--------
S|---------------------------------------------------------------------------


G|---------------------------------------------------------
U|---------------------------------------------------------
I|--------------------------3-3-2--------------------------
T|-----------------------------------5----3--2-3--2-5--5---
A|---------------------------------------------------------
R|---------------------------------------------------------
 |
B|-10-----10--9-10-12-----------------------------------17-
A|--------------------------------------------15-----------
S|-----------------------10------------------------15------
S|---------------------------------------13----------------


G|------------------------------------------------------------------------------
U|------------------------------------------------------------------------------
I|------------------------------------------------------------------------------
T|------------------------------------------------------------------------------
A|-------------------------------------3--2-3----3--2-3--2-3-2-3--5-------------
R|------------------------------------------------------------------------------
 |
B|------12---10-----10--9-10-12----------------------------------------------12-
A|------------------------------------------------------------------------------
S|-10------------------------------10--10--8--8-----------8----9-----10--10-----
S|-----------------------------------------------10--10-----10----10------------


G|---------------------------------------------------------
U|---------------------------------------------------------
I|--------------------------3-3-2--------------------------
T|-----------------------------------5---3--2-3--2-5--5----
A|---------------------------------------------------------
R|---------------------------------------------------------
 |
B|-10-----10--9-10-12------15--14---12--10--9-10--9-12--12-
A|---------------------------------------------------------
S|----------------------13---------------------------------
S|---------------------------------------------------------

[The rest of the guitar part is not entirely tabbed yet.]

B|---------------------------------------------7--
A|------------------7---8--9---10----10----10-----
S|-10----8---10-----------------------------------
S|---------------------------------------8--------


B|-------10p5p0------------------------------------------
A|---------------------------------------7---8--9---10---
S|--------------8-----10----8----10----8-----------------
S|-10--------------10------------------------------------


G|-----------------------------------------------------------------------------
U|--6--------------------------------------------------------------------------
I|--3-----0------5---------3---------------------------------------------------
T|---------------4---------2---------------------------------------------------
A|-------------5-------3-0-----------------------------------------------------
R|-----------------------------------------------------------------------------
 |
B|---------------------------------------------------------------------------7-
A|-10----10------12--------10---------------------7---8--9---10----10----10----
S|-------------------------------10----8---10----------------------------------
S|-----8------10------10-8---------------------------------------------8-------


B|-------10p5p0-----------------------------------------------------------------
A|-------------------------------------7---8--9---10----10----10----------------
S|--------------8-----10----8---10-------------------------------------7---8--9-
S|-10--------------10---------------------------------------8-------10----------


Last modified: 10/18/2002

VGJam Tabs ToeJam & Earl - "Theme"
Tabs database last modified Tuesday, 01-Nov-2016 19:14:53 UTC.
Copyright © 1999 - 2016 VideoGameJam.com. All rights reserved.