VGJam Tabs Wonder Boy in Monster World
Wonder Boy in Monster World
"Islands theme" - Guitar tab
Platform(s):Sega Genesis
Tabbed by:Rixonomic
Last modified:2008-04-09
Date added:2010-01-04
Print it:Original file (.TXT)
Hear it:MIDI file
<|----------------------------------PLEASE NOTE---------------------------------|>
<|This file is the author's own work and represents their interpretation of the |>
<|song. You may only use this file for private study, scholarship, or research. |>
<|------------------------------------------------------------------------------|>

WonderBoy in Monster World (Sega Genesis)

"Islands" theme

Original Composer - Shin'ichi Sakamoto

<|------------------------------------------------------------------------------|>

Tabbed by Rixonomic (rixonomic@yahoo.com) Wednesday, April 09, 2008.

Tabbed for http://www.videogamejam.com/

<|------------------------------------------------------------------------------|>

I haven't really got much to say about this tab. It's only my second, so I'm sure it's not perfect. 
Well, I'm pretty much 100% sure on all the notes, but the timing, I'm aware, is a little off in some, if not most areas. 
I know very little about the technicalities of such things so I just kinda threw the notes about where they sound like they should be to me.
So if nothing else, you've at least got a good reference. ;)

So...Enjoy!


Intro
           
           v               v               v               v      
e|-------------------------------------------------------------------------|
B|---------13------13------12-12--------------------------12-12------------|
G|-------------------------------------14------14------------------12------|
D|-------------------------------------------------------------------------|
A|-------------------------------------------------------------------------|
E|-------------------------------------------------------------------------|

           v               v               v               v      
e|-------------------------------------------------------------------------|
B|---------15------15------13-13-------12------12---------13-13------------|
G|-----------------------------------------------------------------14------|
D|-------------------------------------------------------------------------|
A|-------------------------------------------------------------------------|
E|-------------------------------------------------------------------------|

           v               v               v               v      
e|-------------------------------------------------------------------------|
B|---------15------15------13-13-------12------12---------13-13------------|
G|-----------------------------------------------------------------14------|
D|-------------------------------------------------------------------------|
A|-------------------------------------------------------------------------|
E|-------------------------------------------------------------------------|

           v               v               v               v      
e|-------------------------------------------------------------------------|
B|---------13------13------------13-----13-13------------------------------|
G|---------------------------------------------------------12--------------|
D|-------------------------------------------------------------------------|
A|-------------------------------------------------------------------------|
E|-------------------------------------------------------------------------|


Main Riff

           v               v               v               v      
e|-------------------------------------------------------------------------|
B|---------13----------13----------------------------------13------15------|
G|-------------------------------------------------12----------------------|
D|-------------------------------------------------------------------------|
A|-------------------------------------------------------------------------|
E|-------------------------------------------------------------------------|

           v               v               v               v      
e|---------12------13--12------12------------------------------------------|
B|---------------------------------15------15------15--13------13--12------|
G|-------------------------------------------------------------------------|
D|-------------------------------------------------------------------------|
A|-------------------------------------------------------------------------|
E|-------------------------------------------------------------------------|

           v               v               v               v      
e|---------------------------------12--------------------------------------|
B|-----------------------------------------15----------------------13------|
G|---------14--------------------------------------------------------------|
D|-------------------------------------------------------------------------|
A|-------------------------------------------------------------------------|
E|-------------------------------------------------------------------------|

           v               v               v               v      
e|-------------------------------------------------------------------------|
B|---------12------13--12------12------------------------------------------|
G|---------------------------------14------12--------------12--------------|
D|-------------------------------------------------------------------------|
A|-------------------------------------------------------------------------|
E|-------------------------------------------------------------------------|

           v               v               v               v      
e|---------------------------------------------------------12------13------|
B|---------15----------15--------------------------15----------------------|
G|-------------------------------------------------------------------------|
D|-------------------------------------------------------------------------|
A|-------------------------------------------------------------------------|
E|-------------------------------------------------------------------------|

           v               v               v               v      
e|---------15----------12----------12--------------------------------------|
B|-----------------------------15----------15----------15----------13--12--|
G|-----------------12------------------------------12----------12----------|
D|-------------------------------------------------------------------------|
A|-------------------------------------------------------------------------|
E|-------------------------------------------------------------------------|

           v               v               v               v      
e|---------------------------------------------------12--------------------|
B|-------------------12------------13------15----------------------13------|
G|---------14--------------------------------------------------------------|
D|-------------------------------------------------------------------------|
A|-------------------------------------------------------------------------|
E|-------------------------------------------------------------------------|

           v               v               v               v      
e|-------------------------------------------------------------------------|
B|---------15--------------------------------------------------------------|
G|-----------------------------------------12------------------------------|
D|-------------------------------------------------------------------------|
A|-------------------------------------------------------------------------|
E|-------------------------------------------------------------------------|

           v               v               v               v      
e|-------------------------------------------------------------------------|
B|---------13----------13----------------------------------13------15------|
G|-------------------------------------------------12----------------------|
D|-------------------------------------------------------------------------|
A|-------------------------------------------------------------------------|
E|-------------------------------------------------------------------------|

           v               v               v               v      
e|---------12------13--12------12------------------------------------------|
B|---------------------------------15------15------15--13------13--12------|
G|-------------------------------------------------------------------------|
D|-------------------------------------------------------------------------|
A|-------------------------------------------------------------------------|
E|-------------------------------------------------------------------------|

           v               v               v               v      
e|---------------------------------12--------------------------------------|
B|-----------------------------------------15----------------------13------|
G|---------14--------------------------------------------------------------|
D|-------------------------------------------------------------------------|
A|-------------------------------------------------------------------------|
E|-------------------------------------------------------------------------|

           v               v               v               v      
e|-------------------------------------------------------------------------|
B|---------12------13--12------12------------------------------------------|
G|---------------------------------14------12--------------12--------------|
D|-------------------------------------------------------------------------|
A|-------------------------------------------------------------------------|
E|-------------------------------------------------------------------------|

           v               v               v               v      
e|---------------------------------------------------------12------13------|
B|---------15----------15--------------------------15----------------------|
G|-------------------------------------------------------------------------|
D|-------------------------------------------------------------------------|
A|-------------------------------------------------------------------------|
E|-------------------------------------------------------------------------|

           v               v               v               v      
e|---------15----------12----------12--------------------------------------|
B|-----------------------------15----------15----------15----------13--12--|
G|-----------------12------------------------------12----------12----------|
D|-------------------------------------------------------------------------|
A|-------------------------------------------------------------------------|
E|-------------------------------------------------------------------------|


           v               v               v               v      
e|---------------------------------12----------------------12--------------|
B|---------------------13------------------15------------------------------|
G|---------14--------------------------------------------------------------|
D|-------------------------------------------------------------------------|
A|-------------------------------------------------------------------------|
E|-------------------------------------------------------------------------|

           v               v               v               v      
e|-------------------------------------------------------------------------|
B|---------13-----13-------------13----13--13------------------------------|
G|-------------------------------------------------------------------------|
D|-------------------------------------------------------------------------|
A|-------------------------------------------------------------------------|
E|-------------------------------------------------------------------------|


Bridge, or something...I don't know.

           v               v               v               v      
e|---------17----------13----------------------------------13------17------|
B|---------------------------------13--------------------------------------|
G|-----------------------------------------------14--14--------------------|
D|-------------------------------------------------------------------------|
A|-------------------------------------------------------------------------|
E|-------------------------------------------------------------------------|

           v               v               v               v      
e|---------15----------12--------------------------------------------------|
B|---------------------------------13--------------------------------------|
G|-------------------------------------------------------------------------|
D|-------------------------------------------------------------------------|
A|-------------------------------------------------------------------------|
E|-------------------------------------------------------------------------|

           v               v               v               v      
e|---------17----------13----------------------------------13------17------|
B|---------------------------------13--------------------------------------|
G|-----------------------------------------------14--14--------------------|
D|-------------------------------------------------------------------------|
A|-------------------------------------------------------------------------|
E|-------------------------------------------------------------------------|

           v               v               v               v      
e|---------15~~~~~~~~~~~~~~~~~~~~~~~~~~~~~~~~~~~~~~~~~~~~~~~~~~~~~~~~------|
B|-------------------------------------------------------------------------|
G|-------------------------------------------------------------------------|
D|-------------------------------------------------------------------------|
A|-------------------------------------------------------------------------|
E|-------------------------------------------------------------------------|

           v               v               v               v      
e|---------13--------------------------------------------------------13----|
B|---------------------15----------12----------------------15--------------|
G|-----------------------------------------------12--12--------------------|
D|-------------------------------------------------------------------------|
A|-------------------------------------------------------------------------|
E|-------------------------------------------------------------------------|

           v               v               v               v      
e|---------12----------13--12----------------------------------------------|
B|---------------------------------13--------------------------------------|
G|-----------------------------------------------------------------12------|
D|-------------------------------------------------------------------------|
A|-------------------------------------------------------------------------|
E|-------------------------------------------------------------------------|

           v               v               v               v      
e|-------------------------------------------------------------------------|
B|---------------------12----------13------15--------------12------13------|
G|---------14--------------------------------------14----------------------|
D|-------------------------------------------------------------------------|
A|-------------------------------------------------------------------------|
E|-------------------------------------------------------------------------|

           v               v               v               v      
e|-------------------------------------------------------------------------|
B|---------15---------------------15p13p12p--------------------------------|
G|-----------------------------------------12--------------12--------------|
D|-------------------------------------------------------------------------|
A|-------------------------------------------------------------------------|
E|-------------------------------------------------------------------------|

Outro dealy

           v               v               v               v      
e|---------------------------------12~~~~~~~~~~~~~~~~~~~~~~----------------|
B|---------13------13--13------13------------------------------------------|
G|-----------------------------------------------------------------12------|
D|-------------------------------------------------------------------------|
A|-------------------------------------------------------------------------|
E|-------------------------------------------------------------------------|

           v               v               v               v      
e|--------------------------------13~~~~~~~~~~~~~~~~~~~~~~~--------12--13--|
B|---------15------15--15------15------------------------------------------|
G|-------------------------------------------------------------------------|
D|-------------------------------------------------------------------------|
A|-------------------------------------------------------------------------|
E|-------------------------------------------------------------------------|

           v               v               v               v      
e|---------15------12--13----------12--------------------------------------|
B|-----------------------------15----------13--15------12--13--------------|
G|-----------------------------------------------------------------14------|
D|-------------------------------------------------------------------------|
A|-------------------------------------------------------------------------|
E|-------------------------------------------------------------------------|

           v               v               v               v      
e|-------------------------------------------------------------------------|
B|---------12------12--13------13--15~~~~~~~~~~~~~~~~----------------------|
G|---------------------------------------------------------12--------------|
D|-------------------------------------------------------------------------|
A|-------------------------------------------------------------------------|
E|-------------------------------------------------------------------------|

           v               v               v               v      
e|---------------------------------12~~~~~~~~~~~~~~~~~~~~~~----------------|
B|---------13------13--13------13------------------------------------------|
G|-----------------------------------------------------------------12------|
D|-------------------------------------------------------------------------|
A|-------------------------------------------------------------------------|
E|-------------------------------------------------------------------------|

           v               v               v               v      
e|--------------------------------13~~~~~~~~~~~~~~~~~~~~~~~--------12--13--|
B|---------15------15--15------15------------------------------------------|
G|-------------------------------------------------------------------------|
D|-------------------------------------------------------------------------|
A|-------------------------------------------------------------------------|
E|-------------------------------------------------------------------------|

           v               v               v               v      
e|---------15------12--13----------12------------------------------12------|
B|-----------------------------15----------13--15------15--15--------------|
G|-------------------------------------------------------------------------|
D|-------------------------------------------------------------------------|
A|-------------------------------------------------------------------------|
E|-------------------------------------------------------------------------|

           v               v               v               v      
e|-------------------------------------------------------------------------|
B|---------13------13------------13----13--13------------------------------|
G|-------------------------------------------------------------------------|
D|-------------------------------------------------------------------------|
A|-------------------------------------------------------------------------|
E|-------------------------------------------------------------------------|

And repeat from the main riff. Simple as that.



Any comment, corrections, questions or criticisms would be welcomed at,

rixonomic@yahoo.com



Good luck, Wonderboy fan(s)!

VGJam Tabs Wonder Boy in Monster World - "Islands theme"
Tabs database last modified Tuesday, 01-Nov-2016 19:14:53 UTC.
Copyright © 1999 - 2016 VideoGameJam.com. All rights reserved.