VGJam Tabs Dance Dance Revolution
Dance Dance Revolution
"Butterfly" - Guitar tab
Platform(s):Arcade
Tabbed by:Deezer
Last modified:2001-07-24
Print it:Original file (.TXT)
#----------------------------------PLEASE NOTE--------------------------------#
#This file is the author's own work and represents their interpretation of the#
#song. You may only use this file for private study, scholarship, or research.#
#-----------------------------------------------------------------------------##

Dance Dance Revolution (Arcade)
"Butterfly"

Originally composed by: Smile.dk
------------------------------------------------------------------------------
Tabbed by: Deezer (deezer@kontek.net)
For http://www.kontek.net/vgjam/
------------------------------------------------------------------------------

This is the oriental-sounding intro, which just happens to be the same notes
of the vocals in the chorus (I, I, I, I'm your little butterfly...).

Standard Tuning - (low to high) EADGBe


--------------9-----------9--12--9---------
--9----9--12-------9--12------------12--9--
-------------------------------------------
-------------------------------------------
-------------------------------------------
-------------------------------------------

----------------------------------------------
------------9--12---------------9-------------
--11----11-----------11--9--11-----11--9------
------------------------------------------11--
----------------------------------------------
----------------------------------------------

Last modified: 07/24/2001


VGJam Tabs Dance Dance Revolution - "Butterfly"
Tabs database last modified Monday, 21-Jul-2014 21:11:05 CDT.
Copyright © 1999 - 2014 VideoGameJam.com. All rights reserved.