VGJam Tabs Addams Family
Addams Family
"Theme" - Guitar tab
Platform(s):Super NES
Tabbed by:regm_wwjd
Last modified:2002-03-13
Print it:Original file (.TXT)
Hear it:MIDI file
Title: Addams Family

------------------------------------------------------------------------------
------------------------------------------------------------------------------
------------------------------------------------------------------------------
----------------------------0--*--*-----------0-----------0-------------------
----0--2--3--*--*--0--2--4-----------0--2--4-----0--2--4--------0--2--3--*----
-3-----------------------------------------------------------3----------------


------------------------------------------------------------------------------
------------------------------------------------------------------------------
------------------------------------------------------------------------------
-------------------------------0--*--*-----------0-----------0----------------
-*-----0--2--3--*--*--0--2--4-----------0--2--4-----0--2--4--------0--2--3----
----3-----------------------------------------------------------3-------------


-------------0-----------------------------------------0----------------------
----------1-----1--------3-----0--3--0--------1-----1-----1--------3--1--0----
-------0-----------2--------3-----------0--------0-----------2----------------
----------------------3--------------------2--------------------3-------------
-*--*-------------------------------------------------------------------------
------------------------------------------------------------------------------


-------------------0-----------------------------------------0----------------
-------0--1-----1-----1--------3-----0--3--0--------1-----1-----1--------3----
-0--2--------0-----------2--------3-----------0--------0-----------2----------
----------------------------3--------------------2--------------------3-------
------------------------------------------------------------------------------
------------------------------------------------------------------------------


------------------------------------------------------------------------------
-1--0--------0--1-------------------------------------------------------------
-------0--2-------------------------------------------------------------------
------------------------------------------------------------------------------
------------------------------------------------------------------------------
------------------------------------------------------------------------------

VGJam Tabs Addams Family - "Theme"
Tabs database last modified Tuesday, 01-Nov-2016 19:14:53 UTC.
Copyright © 1999 - 2016 VideoGameJam.com. All rights reserved.