VGJam Tabs Chrono Trigger
Chrono Trigger
"Chrono Trigger" - Guitar tab
Platform(s):Super NES
Composed by:Yasunori Mitsuda, Nobuo Uematsu, Noriko Matsueda
Soundtrack:Chrono Trigger Original Sound Version [PSCN-5021~3] (track D1-02)
Tabbed by:Thomas McManus
Last modified:2001-05-01
Print it:Original file (.TXT)
Hear it:MIDI file
Song: Chrono Trigger
Game: Chrono Trigger
Composed by: Yasunori Mitsuda
Tabbed by: Thomas McManus (tom0015@hotmail.com)

e-----------------------------7~~~-8~~~~~~~-10~~-12~~-14~h15p14p10\7~-
B-----------------------10~~~-----------------------------------------
G------------------9~~~-----------------------------------------------
D--------7~~~-9~~~----------------------------------------------------
A---7~~~--------------------------------------------------------------
E-7-------------------------------------------------------------------

 /-----  -   -   -  play twice  -   -   -  -----\
e|------------------------------7-7~------------|-------------------
B|-----7-8---7---------------10------10-9-------|----7-8~~~~-10~~~~-
G|---9---------7~~~~-------9--------------9~~~~-|--9----------------
D|-7-------9----------7~-9----------------------|-------------------
A|----------------------------------------------|-------------------
E|----------------------------------------------|-------------------

e--7~~~~-8-8~~-10-10~~p9p8p7~~~~~~~~~-------------------------------
B----------------------------------------------8~~~~-10~~~~-8~~~~---
G----------------------------------------9~~~~----------------------
D--------------------------------------7----------------------------
A-------------------------------------------------------------------
E-------------------------------------------------------------------

                        /--  -  -  -  -  - play twice -  -  -  -  ----\
e-----------------------|-----------------------------7-7~------------|
B-7p5h7---7p5h7--7-7-7--|-----7-8---7--------------10------10-9-------|
G-----------------------|---9---------7~~~~------9--------------9~~~~-|
D-----------------------|-7-------9---------7~-9----------------------|
A-----------------------|---------------------------------------------|
E-----------------------|---------------------------------------------|

e------------------7~~~~-8-8~~-10-10~~p9p8p7~~~~~~~~----------------
B---7-8~~~~-10~~~~-------------------------------------------8~~~~--
G-9----------------------------------------------------9~~~~--------
D----------------------------------------------------7--------------
A-------------------------------------------------------------------
E-------------------------------------------------------------------

                              coda
e----------------------------|---------7~~~~------------------------
B-10~~~~-8~~~~-7p5h7---7ph5--|---------------10-8-7~~~~-------------
G----------------------------|-----7-9------------------7~~~~-6-7~--
D----------------------------|-7-9----------------------------------
A----------------------------|--------------------------------------
E----------------------------|--------------------------------------

e---------------7~~~~----7-9~~~~-10~~~~-7~~~~~~~~~---------7~~~~----
B-/10~~~~~~-10~-------10-----------------------------------------10-
G------------------------------------------------------7-9----------
D--------------------------------------------------7-9--------------
A-------------------------------------------------------------------
E-------------------------------------------------------------------

e----------------------------------7~~~~----7-9~~~~-10~~~~----------
B-8-7~~~~------------/10~~~~~~-10~-------10-------------------------
G---------7~~~~-6-7~------------------------------------------------
D-------------------------------------------------------------------
A-------------------------------------------------------------------
E-------------------------------------------------------------------

            play fast til end
e-12~~~~~~~-9h10p7----7------------------------------------------
B------------------10---------7-8~-10-8-7--------------------7-8-
G-----------------------9~~-9-------------9-7-9----------7-9-----
D-----------------------------------------------9~~~~------------
A----------------------------------------------------------------
E----------------------------------------------------------------

e----------10~~-8~~-7h8p7----------------------------------------
B-10~~--------------------10-8-10~~~~~~-8~-7~~--7-8-7------------
G------9~~--------------------------------------------7---9------
D-------------------------------------------------------9--------
A----------------------------------------------------------------
E----------------------------------------------------------------

VGJam Tabs Chrono Trigger - "Chrono Trigger"
Tabs database last modified Tuesday, 01-Nov-2016 19:14:53 UTC.
Copyright © 1999 - 2016 VideoGameJam.com. All rights reserved.