VGJam Tabs Chrono Trigger
Chrono Trigger
"Memories of Green" - Guitar tab
Platform(s):Super NES
Composed by:Yasunori Mitsuda, Nobuo Uematsu, Noriko Matsueda
Soundtrack:Chrono Trigger Original Sound Version [PSCN-5021~3] (track D1-05)
Tabbed by:PiccoloD
Last modified:1999-11-10
Print it:Original file (.TXT)
Hear it:MIDI file
#----------------------------------PLEASE NOTE--------------------------------#
#This file is the author's own work and represents their interpretation of the#
#song. You may only use this file for private study, scholarship, or research.#
#-----------------------------------------------------------------------------#
#-- File created with Instab - http://www.pconline.com/~smcarey/instab.html --#
#-----------------------------------------------------------------------------#


Game: Chrono Trigger
Title: Memories of Green
Transcribed by: PiccoloD
Email: ewa199@aol.com


This is the "Crono" theme thats used in many of the songs from Chrono Trigger.


Try playing with a Capo on the 5th fret if you have one.


---------0----------------------------------0-0-------------------------------
-----3-------1------3--0-------------0-1-3-------3-1-0------------------------
-2--------------2----------------2--------------------------------------------
------------------------------------------------------------------------------
------------------------------------------------------------------------------
------------------------------------------------------------------------------


---------0----------------------------------0--0------------------------------
-----3-------1------3--0-------------0-1-3--------3-1-0-----------------------
-2--------------2----------------2--------------------------------------------
------------------------------------------------------------------------------
------------------------------------------------------------------------------
------------------------------------------------------------------------------


---------------------------0---------1---------2---3---3---2---1---0----------
----0--1---------3------------------------------------------------------------
-2----------------------------------------------------------------------------
------------------------------------------------------------------------------
------------------------------------------------------------------------------
------------------------------------------------------------------------------


-----------0---1---3----------------------------------------------------------
-1--0--3---------------3-1-3--------------------------------------------------
------------------------------------------------------------------------------
------------------------------------------------------------------------------
------------------------------------------------------------------------------
------------------------------------------------------------------------------


Play through all this twice.


Below is what the background bells are playing. Try getting someone to play this
on piano while you play guitar.


-3--------3---------3--------3----
----0--1------1--0-----1--0-------
----------------------------------
----------------------------------
----------------------------------
----------------------------------


Corrections Welcomed.


EWA199@aol.com

VGJam Tabs Chrono Trigger - "Memories of Green"
Tabs database last modified Tuesday, 01-Nov-2016 19:14:53 UTC.
Copyright © 1999 - 2016 VideoGameJam.com. All rights reserved.