VGJam Tabs Chrono Trigger
Chrono Trigger
"A Strange Happening" - Guitar tab
Platform(s):Super NES
Composed by:Yasunori Mitsuda, Nobuo Uematsu, Noriko Matsueda
Soundtrack:Chrono Trigger Original Sound Version [PSCN-5021~3] (track D1-08)
Tabbed by:Thomas McManus
Last modified:2000-08-18
Print it:Original file (.TXT)
Song: A Strange Happening
Game: Chrono Trigger
Composed by: Yasunori Mitsuda
Tabbed by: Thomas McManus (tom0015@hotmail.com)


e--------------------------------------------------------------------
B--3----------3----------3----------3----------3----------3----------
G----2~~~~~-----1~~~~~-----2~~~~~-----1~~~~~-----2~~~~~-----1~~~~~---
D--------------------------------------------------------------------
A--------------------------------------------------------------------
E--------------------------------------------------------------------

e------------------------1~-1-4~--4-3~--3-2~--2-1~~-1-4~--4-3~--3-2~-
B--3----------3------------------------------------------------------
G----2~~~~~-----1~~~~~-----------------------------------------------
D--------------------------------------------------------------------
A--------------------------------------------------------------------
E--------------------------------------------------------------------

e--2-1~~~~-------------
B----------------------
G----------------------
D----------------------
A----------------------
E----------------------
VGJam Tabs Chrono Trigger - "A Strange Happening"
Tabs database last modified Tuesday, 01-Nov-2016 19:14:53 UTC.
Copyright © 1999 - 2016 VideoGameJam.com. All rights reserved.