VGJam Tabs Chrono Trigger
Chrono Trigger
"Wind Scene" - Guitar tab
Platform(s):Super NES
Composed by:Yasunori Mitsuda, Nobuo Uematsu, Noriko Matsueda
Soundtrack:Chrono Trigger Original Sound Version [PSCN-5021~3] (track D1-09)
Tabbed by:Tang
Last modified:2002-03-19
Print it:Original file (.TXT)
Hear it:MIDI file
Title: Wind Scene (Chrono Trigger)
Composer: Yasunori Mitsuda
Tabbed by: Tang
Email: fot@tm.net.my

This is the song "Wind Scene" from Chrono Trigger (PSX & SNES), it appears
in the 600 A.D. world map.
I tabbed this song directly from the piano version, and arranged it for
2 guitars. The 1st guitar is the main melody. Any suggestions, corrections,
pls email to me.


Guitar 1
--------


E||---------------0----||---1--0------------------|------------------------|
B||----------3---------||---------1-----3------3--|--1---------------------|
G||--------------------||*-----------2------------|-----2-----0--2----0----|
D||--------------------||*--0---------------------|--------3-----3----2----|
A||--------------------||---------------1---------|--0---------------------|
E||--------------------||-------------------------|------------------------|



--------------0----1----|---------------0----|--1--0------------------|
-----------1--1---------|--1-----------------|--------1-----3------3--|
--------2-----0---------|--0-----------------|-----------2------------|
--2--3------------------|--3-----------------|--0---------------------|
------------------------|--------------------|--------------1---------|
--------------3---------|--------------------|------------------------|



------------------------|--------------0-----------|----------------0-----||
--1---------------------|-----------1--1--3--1--3--|--3--------3----------||
-----2-----0--2----0----|--------2-----0-----2-----|--2------------------*||
--------3-----3----2----|--2--3--------------2-----|--5------------------*||
--0---------------------|--------------------------|----------------------||
------------------------|--------------3-----------|----------------------||



--1--0------------------|------------------------|--------------0----1----|
--------1-----3------3--|--1---------------------|-----------1------------|
-----------2------------|-----2-----0--2----0----|--------2---------------|
--0---------------------|--------3-----3----2----|--2--3------------------|
--------------1---------|--0---------------------|------------------------|
------------------------|------------------------|------------------------|



---------------0----|--1--0------------------|------------------------|
--1-----------------|--------1-----3------3--|--1---------------------|
--------------------|-----------2------------|-----2-----0--2----0----|
--------------------|--0---------------------|--------3-----3----2----|
--------------------|--------------1---------|--0---------------------|
--------------------|------------------------|------------------------|



--------------0-----------|-----------------5--|--5--------3----1----|
-----------1-----3--1--3--|--3-----------------|--6--------5----3----|
--------2-----------------|--0-----------------|---------------------|
--2--3--------------------|--0-----------------|---------------------|
--------------------0-----|--------------------|---------------------|
--------------3-----------|--------------------|---------------------|



--0--------1----3----|--------------------|----------------------|
--1--------3----5----|--5-----------------|-----------------1----|
---------------------|--5------------5----|--2--------------2----|
---------------------|---------------7----|--3----2----3---------|
---------------------|--------------------|----------------------|
---------------------|--------------------|----------------------|



---------------------|--0--------1----3----|--0-------------------|
-----------1----3----|--1--------3----5----|--1-------------------|
--3--------2----3----|---------------------|-------2----0----2----|
--5------------------|---------------------|----------------------|
---------------------|---------------------|----------------------|
---------------------|---------------------|----------------------|



------------------------|--5--------3----1----|--0--------1----3----|
--1------------------1--|--6--------5----3----|--1--------3----5----|
------------0--2--3-----|---------------------|---------------------|
--1----3----------------|---------------------|---------------------|
------------------------|---------------------|---------------------|
------------------------|---------------------|---------------------|



--5--------3----1----|--0---------0----1----|--5--------3----1----|
--6--------5----3----|-------3--------------|---------------------|
---------------------|--2-------------------|--2------------------|
---------------------|----------------------|---------------------|
---------------------|----------------------|---------------------|
---------------------|----------------------|---------------------|



--0-------------------|--0----------------|--0-------------0----||
--0----3----2----3----|--0----------------|--2--------3---------||
----------------------|-------------------|--2------------------||
----------------------|-------------------|---------------------||
----------------------|-------------------|---------------------||
----------------------|-------------------|---------------------||**repeat



Guitar 2
--------

E||------------------||---------0---------------|------------------------|
B||------------------||--------------------1----|-----------1------------|
G||------------------||*-----2------------------|------------------------|
D||------------------||*--0-------------3-------|-----2--------3----2----|
A||------------------||--------------1----------|--0-----3---------------|
E||------------------||-------------------------|------------------------|



--------0---------------|-----------1--0--------|--------0---------------|
------------------------|--------3-----1--------|-------------------1----|
-----2---------------0--|-----0-----------------|-----2------------------|
--0-------------0-------|-----------------------|--0-------------3-------|
------------------------|--3--------------------|-------------1----------|
-------------3----------|-----------------------|------------------------|



------------------------|--------0--------------|--------0--3--2---------||
-----------1------------|-----------------------|--------------3---------||
------------------------|-----2-----------------|-----2-----------------*||
-----2--------3----2----|--0--------------------|--0--------------------*||
--0-----3---------------|------------------0----|------------------------||
------------------------|-------------3---------|------------------------||



--------------------|----------------------|--------------------|
--------------------|-----------------2----|--1-----------------|
--------------------|--0----3----2----2----|--2-----------------|
--0-----------------|--2----3----3----2----|--0--------3--------|
--8--------8--------|--0----3--------------|--------------------|
-----------6--------|----------------------|-----------3--------|



--------------------|--------------------|----------------------|
--------------------|--------------------|-----------------2----|
--------------------|--------------------|--0----3----2----2----|
--3--------2--------|--0-----------------|--2----3----3----2----|
--3-----------------|--8--------8--------|--0----3--------------|
--------------------|-----------6--------|----------------------|



---------------------|--------------------|------------------------|
--1------------------|--------------------|------------------------|
--2------------------|--0-----------------|--3--3----3--3--3----3--|
--0------------------|--0--------0--------|------------------------|
----------------0----|-----------9--------|------------------------|
-----------3---------|--------------------|------------------------|



------------------------|------------------------|------------------------|
------------------------|------------------------|--3--3----3--3--3----3--|
--3--3----3--3--3----3--|--2--2----2--2--2----2--|------------------------|
------------------------|------------------------|------------------------|
------------------------|------------------------|------------------------|
------------------------|------------------------|------------------------|



------------------------|------------------------|------------------------|
------------------------|--1--1----1--1--1----1--|------------------------|
--0--0----0--0--0----0--|------------------------|------------------------|
------------------------|------------------------|--3--3----3--3--3----3--|
------------------------|------------------------|------------------------|
------------------------|------------------------|------------------------|




------------------------|------------------------|------------------------|
------------------------|--3--3----3--3--3----3--|--1--1----1--1--1----1--|
------------------------|--3--3----3--3--3----3--|--3--3----3--3--3----3--|
--3--3----3--3--3----3--|------------------------|------------------------|
------------------------|------------------------|------------------------|
------------------------|------------------------|------------------------|



------------------------|------------------------|------------------------|
--3--3----3--3--3----3--|--3--3----3--3--3----3--|--3--3----3--3--3----3--|
--4--4----4--4--4----4--|--4--4----4--4--4----4--|--0--0----0--0--0----0--|
------------------------|------------------------|------------------------|
------------------------|------------------------|------------------------|
------------------------|------------------------|------------------------|



------------------------|------------------------|-------------------||
--3--3----3--3--3----3--|--3--3----3--3--3----3--|--2----------------||
--1--1----1--1--1----1--|--2--2----2--2--2----2--|--2----------------||
------------------------|------------------------|-------------------||
------------------------|------------------------|-------------------||
------------------------|------------------------|-------------------||**repeat

VGJam Tabs Chrono Trigger - "Wind Scene"
Tabs database last modified Tuesday, 01-Nov-2016 19:14:53 UTC.
Copyright © 1999 - 2016 VideoGameJam.com. All rights reserved.