VGJam Tabs Chrono Trigger
Chrono Trigger
"Frog's Theme" - Guitar tab
Platform(s):Super NES
Composed by:Yasunori Mitsuda, Nobuo Uematsu, Noriko Matsueda
Soundtrack:Chrono Trigger Original Sound Version [PSCN-5021~3] (track D1-19)
Tabbed by:Thomas McManus
Last modified:2000-03-18
Print it:Original file (.TXT)
Hear it:MIDI file
Song: Frog's Theme
Game: Chrono Trigger
Composer: Yasunori Mitsuda
Tabbed by: Thomas McManus (tom0015@hotmail.com)


This is rather difficult to play. Please let me know if there are any
wrong notes (there might be a few in the scale).


e-------------4-2~~--------------------------------------------------
B-4-4-4p2-2h4-------4~~-0---------------h2-0h2h4-2h4h5---------------
G-------------------------1~~~-1h3h4-3h4-----------------------------
D--------------------------------------------------------------------
A--------------------------------------------------------------------
E--------------------------------------------------------------------


e-------------4-4/6~h7p6p4p2h4~~-4~/6~~~--7-7-7p6p4p2---4-4-4p2p0----
B-4-4-4p2-2h4----------------------------------------h4----------h4--
G--------------------------------------------------------------------
D--------------------------------------------------------------------
A--------------------------------------------------------------------
E--------------------------------------------------------------------


e-7-7-7p6p4p2h4~~-4~/6~~~--7-7-7p6p4p2---4-4-4p2p0---7-7-7p6h7h9~-6-6~p4-
B-------------------------------------h4----------h4---------------------
G------------------------------------------------------------------------
D------------------------------------------------------------------------
A------------------------------------------------------------------------
E------------------------------------------------------------------------

VGJam Tabs Chrono Trigger - "Frog's Theme"
Tabs database last modified Tuesday, 01-Nov-2016 19:14:53 UTC.
Copyright © 1999 - 2016 VideoGameJam.com. All rights reserved.