VGJam Tabs Chrono Trigger
Chrono Trigger
"Frog's Theme" - Guitar tab
Platform(s):Super NES
Composed by:Yasunori Mitsuda, Nobuo Uematsu, Noriko Matsueda
Soundtrack:Chrono Trigger Original Sound Version [PSCN-5021~3] (track D1-19)
Tabbed by:Wriggler
Last modified:2002-05-05
Print it:Original file (.TXT)
Hear it:MIDI file
game- Crono Trigger
system- SNES
tab- Wriggler
song- frog's theme (intro)

Heres the main riff of the intro:

             3                3                3
           _____            _____            _____
e-7--7--7--7-7-7---6--6--6--6-6-6---4--4--4--4-4-4---6--6--6---
B-9--9--9--9-9-9---7--7--7--7-7-7---5--5--5--5-5-5---7--7--7---
G------------------------------------------------------------8~
     downpicking

             3
           _____
e-7--7--7--7-7-7---6--6--6------4--4---6--6---7/6--7-7/6--7--7
B-9--9--9--9-9-9---7--7--7------5--5---7--7---9/7--9-9/7--9--9  for a cool improv slide down
G---------------------------8~--------------------------------  the neck quickly from the last chord

heres the lead part over the above part, or what I can make out of it from the midi, 
sounds good anyway

Part A
e----2h4----4~6--4h6p4-2~
B-4------4~-----4--------

Part B         
e----2h4----4~6---6h7h9-6~
B-4------4~-----4--------- 

Part C(same as A)
e----2h4----4~6---4h6p4-2~
B-4------4~-----4--------- 

Part D
e----2h4--6~~~7~~9~-------------------
B-4-----------------9p7--9-9p7--9--9--


VGJam Tabs Chrono Trigger - "Frog's Theme"
Tabs database last modified Tuesday, 01-Nov-2016 19:14:53 UTC.
Copyright © 1999 - 2016 VideoGameJam.com. All rights reserved.