VGJam Tabs Chrono Trigger
Chrono Trigger
"Fanfare 1" - Guitar tab
Platform(s):Super NES
Composed by:Yasunori Mitsuda, Nobuo Uematsu, Noriko Matsueda
Soundtrack:Chrono Trigger Original Sound Version [PSCN-5021~3] (track D1-20)
Tabbed by:Thomas McManus
Last modified:2002-01-28
Print it:Original file (.TXT)
Hear it:MIDI file
Song: Fanfare 1
Game: Chrono Trigger
Composed by: Yasunori Mitsuda
Tabbed by: Thomas McManus (tom0015@hotmail.com)

This song is commonly known as Lucca's Theme

e-----------------------------------------------------------------
B-----------------------------------------------------------------
G------------------------3-3~~--1-1-1-3~~~~~~---------------------
D-----------0-0-0---0--2------------------------------------------
A-4-4-4-2-4-------4-----------------------------------------------
E-----------------------------------------------------------------

e--------------------------------------------0-0-2-2~~~~-2h3p2p0--
B-3~-----2h3~-2-2-2-3----------3~-----2h3~-2----------------------
G----0h2--------------2~~~~-------0h2-----------------------------
D-----------------------------------------------------------------
A-----------------------------------------------------------------
E-----------------------------------------------------------------

e-----------------------------------------------------------------
B-3~-----2h3~-2-2-2-3-------------------------1---1h2h3~~~~~~-----
G----0h2--------------2~~~~-0---0h2-0h2h3-2h3---3-----------------
D-----------------------------3-----------------------------------
A-----------------------------------------------------------------
E-----------------------------------------------------------------

That last part's probably wrong, but it's the best I could make out

Repeat from the second line

VGJam Tabs Chrono Trigger - "Fanfare 1"
Tabs database last modified Tuesday, 01-Nov-2016 19:14:53 UTC.
Copyright © 1999 - 2016 VideoGameJam.com. All rights reserved.