VGJam Tabs Chrono Trigger
Chrono Trigger
"Dome-16's Ruin" - Guitar tab
Platform(s):Super NES
Composed by:Yasunori Mitsuda, Nobuo Uematsu, Noriko Matsueda
Soundtrack:Chrono Trigger Original Sound Version [PSCN-5021~3] (track D2-03)
Tabbed by:Thomas McManus
Last modified:2000-07-18
Print it:Original file (.TXT)
Hear it:MIDI file
Song: Dome-16's Ruin
Game: Chrono Trigger
Composed by: Yasunori Mitsuda
Tabbed by: Thomas McManus (tom0015@hotmail.com)


This is a combination guitar/bass guitar tab. The guitar takes the part 
of the synthesizer, the bass is the bass. Now all I need is a drum tab! :)


Short drum intro, then guitar and bass come in:


e-0~~~~~~~~~~~~~~~~~~~~~~~~~--------------------------0~~~~~~~~~~~~~
B---------------------------3~~~~~~~~~~~~~~~~~~~~~~~~~--------------
G-------------------------------------------------------------------
D-------------------------------------------------------------------
A-------------------------------------------------------------------
E-------------------------------------------------------------------
|                                                                  |
G-------------------------------------------------------------------
D-----2-0-0-2------2-0-0-2------2-0-0-2------2-0-0-2------2-0-0-2---
A-0-0----------0-0----------0-0----------0-0----------0-0-----------
E-------------------------------------------------------------------


e0~~~~~~~~~~~~~3~~~~~~~~---------0~~~~~~~0~~~~~~~~~~~~~~~~~~~~~~~~~~
B-----------------------3~~~~~~~~-----------------------------------
G-------------------------------------------------------------------
D-------------------------------------------------------------------
A-------------------------------------------------------------------
E-------------------------------------------------------------------
|                                                                  |
G-------------------------------------------------------------------
D-----2-0-0-2------2-0-0-2------2-0-0-2------2-0-0-2------2-0-0-2---
A-0-0----------0-0----------0-0----------0-0----------0-0-----------
E-------------------------------------------------------------------


e---------------------------0~~~~~~~~~~~~~~~~~~~~~~~~~3~~~~~~~~-----
B-3~~~~~~~~~~~~~~~~~~~~~~~~~-----------------------------------3~~~~
G-------------------------------------------------------------------
D-------------------------------------------------------------------
A-------------------------------------------------------------------
E-------------------------------------------------------------------
|                                                                  |
G-------------------------------------------------------------------
D-----2-0-0-2------2-0-0-2------2-0-0-2------2-0-0-2------2-0-0-2---
A-0-0----------0-0----------0-0----------0-0----------0-0-----------
E-------------------------------------------------------------------


e-----0~~~~~~~~~~~~~~~~~~~~~~~~~~~~~~~------0~~~~~~~~~~~~~~~~~~~~~~~
B3~~~~--------------------------------3~~~~~------------------------
G-------------------------------------------------------------------
D-------------------------------------------------------------------
A-------------------------------------------------------------------
E-------------------------------------------------------------------
|                                                                  |
G-------------------------------------------------------------------
D-----2-0-0-2-------------------------------------------------------
A-0-0---------0--00-3-00-3-00-3-00-3-0-345-00-5-00-5-00-5-00-5-345--
E-------------------------------------------------------------------


short drum fill, then repeat.

VGJam Tabs Chrono Trigger - "Dome-16's Ruin"
Tabs database last modified Tuesday, 01-Nov-2016 19:14:53 UTC.
Copyright © 1999 - 2016 VideoGameJam.com. All rights reserved.